Sir Sly

home > Sir Sly

Change Bass Tab

Sir Sly

Difficulty: nolevelnolevel

by adalgomes

tuner correct add songbook print version text version save to e-mail
chordsukulelecavacokeyboardtabbassdrumsharmonicsflute Guitar Pro
chords

Change

  		
Intro 
B|--------------------------------| 
D|--0-------4-------0-------4-----| 
A|--------------------------------| 
E|--------------------------------| 


Verse 
N/A 


Chorus 
B|--------------------------------| 
D|--0-------4-------0-------4-----| 
A|--------------------------------| 
E|--------------------------------| 


Verse 
N/A 


Chorus 
B|--------------------------------| 
D|--0-------4-------0-------4-----| 
A|--------------------------------| 
E|--------------------------------| 


Bridge 
B|--------------------------------| 
D|--0-------4-------0-------4-----| 
A|--------------------------------| 
E|--------------------------------| 


Chorus 
B|--------------------------------| 
D|--0-------4-------0-------4-----| 
A|--------------------------------| 
E|--------------------------------|  
	  

Search Paypal
auto scroll beats size up size down change color hide chords drawings
tab show chords e-chords YouTube Clip e-chords hide all tabs e-chords go to top tab