Shoji Meguro

Layer Cake

Shoji Meguro

bass

by  TAMAMOREIRA

save to print version add songbook text version e-mail correct tuner
chordsukulelecavacokeyboardtabbassdrumsharmonicaflute Guitar Pro
close

there isn't a video lesson for this song

chords

Layer Cake

	  		Intro 

G|--3--2-----0--3--2-----0--3--2-----0--3--2-----0--3--2-----0--3--2-----0---| 
D|--------4-----------4-----------4-----------4-----------4-----------4------| 
A|---------------------------------------------------------------------------| 
E|---------------------------------------------------------------------------| 

G|--3--2-----0--3--2-----0--3--2-----0--3--2-----0--3--2-----0--3--2-----0---| 
D|--------4-----------4-----------4-----------4-----------4-----------4------| 
A|---------------------------------------------------------------------------| 
E|---------------------------------------------------------------------------| 

G|--3--2-----0--3--2--------| 
D|--------4-----------4-----| 
A|--------------------------| 
E|--------------------------| 

verse 1 

G|--------2--0-----------------------------1-----| 
D|-----0--------4-------0---------4------0-------| 
A|--4---------------4------2---------4-----------| 
E|-----------------------------------------------| 

G|--2-------------------2-----------------------------------| 
D|------2---4-----0--------2---4---0------2------1-0--------| 
A|----------------------------------------------------4-----| 
E|----------------------------------------------------------| 

G|--------2--0-----------------------------1-----| 
D|-----0--------4-------0---------4------0-------| 
A|--4---------------4------2---------4-----------| 
E|-----------------------------------------------| 

G|--2---4------------------2---2----------------------| 
D|----------2-----4----------------2---4--------------| 
A|-------------------------------------------4--------| 
E|----------------------------------------------------| 

Repeat x2 

Chorus 
           > 
G|-----6---6-------4---2---4-------2-------------| 
D|--4--------------------------4-------2---4-----| 
A|-----------------------------------------------| 
E|-----------------------------------------------| 
           > 
G|-----6---6-------7---2---4-------2-------------| 
D|--4--------------------------4-------2--1-0----| 
A|---------------------------------------------4-| 
E|-----------------------------------------------| 

Repeat x2 

The song repeats itself 1 time after the intro, 
so you play the first verse 2 times, then the 
Chorus 2 times, and then you play the whole thing 
(minus the intro) one more time. 



************************************ 

| >  Accented note 

************************************ 
		  

auto scroll beats size up size down change color hide chords drawings
tab show chords e-chords YouTube Clip e-chords hide all tabs e-chords go to top tab

share