Senses Fail

Four Years

Senses Fail

bass

by  LUCICAMARGO

save to print version add songbook text version e-mail correct tuner
chordsukulelecavacokeyboardtabbassdrumsharmonicaflute Guitar Pro
close

there isn't a video lesson for this song

chords

Four Years

	  		
Intro 
F|-----------------|-----------------|-----------------|-----------------| 
C|-----------------|-----------------|-----------------|-----------------| 
G|-----------------|-----------------|-----------------|-----------------| 
C|-0-0---------0-0-|---------0-0-----|-0-0---------0-0-|---------0-0-----| 

F|-----------------|-----------------|-----------------|-----------------| 
C|-----------------|-----------------|-----------------|-----------------| 
G|-1-------1-------|-1-------1-------|-1--1-1--1-------|-1-------1-------| 
C|-----------------|-----------------|-----------------|-----------------| 

F|-----------------|-----------------|-----------------|-----------------| 
C|-----------------|-----------------|-----------------|-----------------| 
G|-----------------|-----------------|-----------------|-----------------| 
C|-0-0---------0-0-|---------0-0-----|-0-0---------0-0-|---------0-0-----| 

F|-----------------|-----------------|-----------------|-----------------| 
C|-----------------|-----------------|-----------------|-0---0---2---2---| 
G|-1-------1-------|-1-------1-------|-1---1---3---3---|-----------------| 
C|-----------------|-----------------|-----------------|-----------------| 

Verse I 
F|-----------------|-----------------|-----------------|-----------------| 
C|-3~--------------|-----------------|-----------------|-----------------| 
G|-----------------|-----------------|-----------------|-----------------| 
C|-----------------|-----------------|-----------------|---------12\-----| 

F|-----------------|-----------------|-----------------|-----------------| 
C|-----------------|-----------------|-----------------|-----------------| 
G|-----------------|-----------------|-----------------|-----------------| 
C|-0-------0-------|-0-------0-------|-0--0-0--0-------|-0-------0-------| 

F|-----------------|-----------------|-----------------|-----------------| 
C|-----------------|-----------------|-----------------|-----------------| 
G|-----------------|-----------------|-----------------|-----------------| 
C|-3~--------------|-----------------|-----------------|---------12\-----| 

F|-----------------|-----------------|-----------------|-----------------| 
C|-----------------|-----------------|-----------------|-----------------| 
G|-----------------|-----------------|-----------------|-----------------| 
C|-0-------0-------|-0-------0-------|-0--0-0--0-------|-0-------0-------| 

Pre-Chorus I 
F|-----------------|-----------------|-----------------|-----------------| 
C|-----------------|-----------------|-----------------|-----------------| 
G|-1---1---1---1---|-1---1---1---1---|-----------------|-----------------| 
C|-----------------|-----------------|-5---5---5---5---|-5---5---5---5---| 

F|-----------------|-----------------|-----------------|-----------------| 
C|-----------------|-----------------|-----------------|-----------------| 
G|-----------------|-----------------|-----------------|-----------------| 
C|-0-0---------0-0-|---------0-0-----|-0-0---------0-0-|---------0-0-----| 

F|-----------------|-----------------|-----------------|-------------------------| 
C|-----------------|-----------------|-----------------|-------------------------| 
G|-1---1---1---1---|-1---1---1---1---|-----------------|-------------------------| 
C|-----------------|-----------------|-5---5---5---5---|/17-17-17-17-17-17-17-17-| 

Chorus I 
F|-----------------|-----------------|-----------------|-----------------| 
C|-----------------|-----------------|-----------------|-----------------| 
G|-----------------|-----------------|-----------------|-----------------| 
C|-3---3---3---3---|-3---3---3---3---|-3---3---3---3---|-3---3---2---2---| 

F|-----------------|-----------------|-----------------|-----------------| 
C|-----------------|-----------------|-----------------|-----------------| 
G|-----------------|-----------------|-----------------|-----------------| 
C|-0---0---0---0---|-0---0---0---0---|-0---0---0---0---|-0---0---0---0---| 

F|-----------------|-----------------|-----------------|-----------------| 
C|-----------------|-----------------|-----------------|-----------------| 
G|-1---1---1---1---|-1---1---1---1---|-1---1---1---1---|-1---1---0---0---| 
C|-----------------|-----------------|-----------------|-----------------| 

F|-----------------|-----------------|-----------------|-----------------| 
C|-----------------|-----------------|-----------------|-----------------| 
G|-----------------|-----------------|-----------------|-----------------| 
C|-5---5---5---5---|-5---5---5---5---|-5---5---5---5---|-5---5---5---5---| 

Main Riff 
F|-----------------|-----------------|-----------------|-----------------| 
C|-----------------|-----------------|-----------------|-----------------| 
G|-----------------|-----------------|-----------------|-----------------| 
C|-0-0---------0-0-|---------0-0-----|-0-0---------0-0-|---------0-0-----| 

F|-----------------|-----------------|-----------------|-----------------| 
C|-----------------|-----------------|-----------------|-----------------| 
G|-1-------1-------|-1-------1-------|-1--1-1--1-------|-1-------1-------| 
C|-----------------|-----------------|-----------------|-----------------| 

F|-----------------|-----------------|-----------------|-----------------| 
C|-----------------|-----------------|-----------------|-----------------| 
G|-----------------|-----------------|-----------------|-----------------| 
C|-0-0---------0-0-|---------0-0-----|-0-0---------0-0-|---------0-0-----| 

F|-----------------|-----------------|-----------------|-----------------| 
C|-----------------|-----------------|-----------------|-----------------| 
G|-1-------1-------|-1-------1-------|-1--1-1--1-------|-1-------1-------| 
C|-----------------|-----------------|-----------------|-----------------| 

Verse II 
F|-----------------|-----------------|-----------------|-----------------| 
C|-----------------|-----------------|-----------------|-----------------| 
G|-----------------|-----------------|-----------------|-----------------| 
C|-3~--------------|-----------------|-----------------|---------12\-----| 

F|-----------------|-----------------|-----------------|-----------------| 
C|-----------------|-----------------|-----------------|-----------------| 
G|-----------------|-----------------|-----------------|-----------------| 
C|-0-------0-------|-0-------0-------|-0--0-0--0-------|-0-------0-------| 

F|-----------------|-----------------|-----------------|-------------------------| 
C|-----------------|-----------------|-----------------|-------------------------| 
G|-----------------|-----------------|-----------------|-------------------------| 
C|-3~--------------|-----------------|-----------------|/15-15-15-15-15-15-15-15-| 

F|-----------------|-----------------|-----------------|-----------------| 
C|-----------------|-----------------|-----------------|-----------------| 
G|-----------------|-----------------|-----------------|-----------------| 
C|-0-------0-------|-0-------0-------|-0--0-0--0-------|-0-------0-------| 

Pre-Chorus II 
F|-----------------|-----------------|-----------------|-----------------| 
C|-----------------|-----------------|-----------------|-----------------| 
G|-1---1---1---1---|-1---1---1---1---|-----------------|-----------------| 
C|-----------------|-----------------|-5---5---5---5---|-5---5---5---5---| 

F|-----------------|-----------------|-----------------|-----------------| 
C|-----------------|-----------------|-----------------|-----------------| 
G|-----------------|-----------------|-----------------|-----------------| 
C|-0-0---------0-0-|---------0-0-----|-0-0---------0-0-|---------0-0-----| 

F|-----------------|-----------------|-----------------|-------------------------| 
C|-----------------|-----------------|-----------------|-------------------------| 
G|-1---1---1---1---|-1---1---1---1---|-----------------|-------------------------| 
C|-----------------|-----------------|-5---5---5---5---|/17-17-17-17-17-17-17-17-| 

Chorus II 
F|-----------------|-----------------|-----------------|-----------------| 
C|-----------------|-----------------|-----------------|-----------------| 
G|-----------------|-----------------|-----------------|-----------------| 
C|-3---3---3---3---|-3---3---3---3---|-3---3---3---3---|-3---3---2---2---| 

F|-----------------|-----------------|-----------------|-----------------| 
C|-----------------|-----------------|-----------------|-----------------| 
G|-----------------|-----------------|-----------------|-----------------| 
C|-0---0---0---0---|-0---0---0---0---|-0---0---0---0---|-0---0---0---0---| 

F|-----------------|-----------------|-----------------|-----------------| 
C|-----------------|-----------------|-----------------|-----------------| 
G|-1---1---1---1---|-1---1---1---1---|-1---1---1---1---|-1---1---0---0---| 
C|-----------------|-----------------|-----------------|-----------------| 

F|-----------------|-----------------|-----------------|-----------------| 
C|-----------------|-----------------|-----------------|-----------------| 
G|-----------------|-----------------|-----------------|-----------------| 
C|-5---5---5---5---|-5---5---5---5---|-5---5---5---5---|-5---5---5---5---| 

F|-----------------|-----------------|-----------------|-----------------| 
C|-----------------|-----------------|-----------------|-----------------| 
G|-----------------|-----------------|-----------------|-----------------| 
C|-3---3---3---3---|-3---3---3---3---|-3---3---3---3---|-3---3---2---2---| 

F|-----------------|-----------------|-----------------|-----------------| 
C|-----------------|-----------------|-----------------|-----------------| 
G|-----------------|-----------------|-----------------|-----------------| 
C|-0---0---0---0---|-0---0---0---0---|-0---0---0---0---|-0---0---0---0---| 

F|-----------------|-----------------|-----------------|-----------------| 
C|-----------------|-----------------|-----------------|-----------------| 
G|-1---1---1---1---|-1---1---1---1---|-1---1---1---1---|-1---1---0---0---| 
C|-----------------|-----------------|-----------------|-----------------| 

F|-----------------|-----------------|-----------------|-----------------| 
C|-----------------|-----------------|-----------------|-----------------| 
G|-----------------|-----------------|-----------------|-----------------| 
C|-5---5---5---5---|-5---5---5---5---|-5---5---5---5---|-5---5---5---5---| 

Bridge 
F|-----------------|-----------------|-----------------|-----------------| 
C|-----------------|-----------------|-----------------|-----------------| 
G|-5~--------------|-----------------|-----------------|-----------------| 
C|-----------------|-----------------|-----------------|-----------------| 

F|-----------------|-----------------|-----------------|-----------------| 
C|-----------------|-----------------|-----------------|-----------------| 
G|-3~--------------|-----------------|-----------------|---------3-5-----| 
C|-----------------|-----------------|-----------------|-----------------| 

F|-----------------|-----------------|-----------------|-----------------| 
C|-----------------|-----------------|-----------------|-----------------| 
G|-1~--------------|-----------------|-----------------|-----------------| 
C|-----------------|-----------------|-----------------|-----------------| 

F|-----------------|-----------------|-----------------|-----------------| 
C|-----------------|-----------------|-----------------|-----------------| 
G|-----------------|-----------------|-----------------|-----------------| 
C|-5~--------------|-----------------|-----------------|-----------------| 

F|-----------------|-----------------|-----------------|-----------------| 
C|-----------------|-----------------|-----------------|-----------------| 
G|-5~--------------|-----------------|-----------------|-----------------| 
C|-----------------|-----------------|-----------------|-----------------| 

F|-----------------|-----------------|-----------------|-----------------| 
C|-----------------|-----------------|-----------------|-----------------| 
G|-3~--------------|-----------------|-----------------|---------3-5-----| 
C|-----------------|-----------------|-----------------|-----------------| 

F|-----------------|-----------------|-----------------|-----------------| 
C|-----------------|-----------------|-----------------|-----------------| 
G|-1~--------------|-----------------|-----------------|-----------------| 
C|-----------------|-----------------|-----------------|-----------------| 

F|-----------------|-----------------|-----------------|-----------------| 
C|-----------------|-----------------|-----------------|-----------------| 
G|-----------------|-----------------|-----------------|-----------------| 
C|-5~--------------|-----------------|-----------------|-----------------| 

When vocals start 
F|-----------------|-----------------|-----------------|-----------------| 
C|-----------------|-----------------|-----------------|-----------------| 
G|-----------------|-----------------|-----------------|-----------------| 
C|-3~--------------|-----------------|-----------------|-----------------| 

F|-----------------|-----------------|-----------------|-----------------| 
C|-----------------|-----------------|-----------------|-----------------| 
G|-----------------|-----------------|-----------------|-----------------| 
C|-3~--------------|-----------------|-----------------|-2~--------------| 

F|-----------------|-----------------|-----------------|-----------------| 
C|-----------------|-----------------|-----------------|-----------------| 
G|-----------------|-----------------|-----------------|-----------------| 
C|-0~--------------|-----------------|-----------------|-----------------| 

F|-----------------|-----------------|-----------------|-----------------| 
C|-----------------|-----------------|-----------------|-----------------| 
G|-----------------|-----------------|-----------------|-1~--------------| 
C|-3~--------------|-----------------|-----------------|-----------------| 

F|-----------------|-----------------|-----------------|-----------------| 
C|-----------------|-----------------|-----------------|-----------------| 
G|-----------------|-----------------|-----------------|-----------------| 
C|-3~--------------|-----------------|-----------------|---------------/-| 

F|-----------------|-----------------|-----------------|-----------------| 
C|-----------------|-----------------|-----------------|-----------------| 
G|-----------------|-----------------|-----------------|-----------------| 
C|-15~-------------|-----------------|-----------------|-2~--------------| 

"This is so damn hard but I am" 
F|-----------------|-----------------|-----------------|-----------------| 
C|-----------------|-----------------|-----------------|-----------------| 
G|-----------------|-----------------|-----------------|-----------------| 
C|-0~--------------|-----------------|-----------------|-----------------| 

"Giving up" 
F|-----------------|-----------------|-----------------|-2---2-----------| 
C|-----------------|-----------------|-----3---5-------|---------5---3---| 
G|-----------------|-----------------|-5-----------3---|-----------------| 
C|-----------------|-----------------|-----------------|-----------------| 

F|-----------------------------------|-----------------|-----------------| 
C|-----------------|-----------------|-----------------|-----------------| 
G|-----------------|-----------------|-----------------|-----------------| 
C|-3---3---3---3---|-3---3---3---3---|-3---3---3---3---|-3---3---3---3---| 

F|-----------------------------------|-----------------|-----------------| 
C|-----------------|-----------------|-----------------|-----------------| 
G|-----------------|-----------------|-----------------|-----------------| 
C|-3---3---3---3---|-3---3---3---3---|-3---3---3---3---|-3---3---3---3---| 

F|-----------------|-----------------|-----------------|-----------------| 
C|-----------------|-----------------|-----------------|-----------------| 
G|-----------------|-----------------|-----------------|-----------------| 
C|-0---0---0---0---|-0---0---0---0---|-0---0---0---0---|-0---0---0---0---| 

F|-----------------|-----------------|-----------------|-----------------| 
C|-----------------|-----------------|-----------------|-----------------| 
G|-1---1---1---1---|-1---1---1---1---|-1---1---1---1---|-1---1---1---1---| 
C|-----------------|-----------------|-----------------|-----------------| 

F|-----------------------------------|-----------------|-----------------| 
C|-----------------|-----------------|-----------------|-----------------| 
G|-----------------|-----------------|-----------------|-----------------| 
C|-3---3---3---3---|-3---3---3---3---|-3---3---3---3---|-3---3---3---3---| 

F|-----------------------------------|-----------------|-----------------| 
C|-----------------|-----------------|-----------------|-----------------| 
G|-----------------|-----------------|-----------------|-----------------| 
C|-3---3---3---3---|-3---3---3---3---|-3---3---3---3---|-3---3---3---3---| 

F|-----------------|-----------------|-----------------|-----------------| 
C|-----------------|-----------------|-----------------|-----------------| 
G|-----------------|-----------------|-----------------|-----------------| 
C|-0---0---0---0---|-0---0---0---0---|-0---0---0---0---|-0---0---0---0---| 

F|-----------------|-----------------|-----------------|-----------------| 
C|-----------------|-----------------|-----------------|-----------------| 
G|-1---1---1---1---|-1---1---1---1---|-1---1---1---1---|-1---1---1---1---| 
C|-----------------|-----------------|-----------------|-----------------| 

Outro 
F|-----------------------------------|-----------------|-----------------| 
C|-----------------|-----------------|-----------------|-----------------| 
G|-----------------|-----------------|-----------------|-----------------| 
C|-3---3---3---3---|-3---3---3---3---|-3---3---3---3---|-3---3---3---3---| 

F|-----------------------------------|-----------------|-----------------| 
C|-----------------|-----------------|-----------------|-----------------| 
G|-----------------|-----------------|-----------------|-----------------| 
C|-3---3---3---3---|-3---3---3---3---|-3---3---3---3---|-3---3---3---3---| 

F|-----------------|-----------------|-----------------|-----------------| 
C|-----------------|-----------------|-----------------|-----------------| 
G|-----------------|-----------------|-----------------|-----------------| 
C|-0---0---0---0---|-0---0---0---0---|-0---0---0---0---|-0---0---0---0---| 

F|-----------------|-----------------|-----------------|-----------------| 
C|-----------------|-----------------|-----------------|-----------------| 
G|-1---1---1---1---|-1---1---1---1---|-1---1---1---1---|-1---1---1---1---| 
C|-----------------|-----------------|-----------------|-----------------| 

F|-----------------------------------|-----------------|-----------------| 
C|-----------------|-----------------|-----------------|-----------------| 
G|-----------------|-----------------|-----------------|-----------------| 
C|-3---3---3---3---|-3---3---3---3---|-3---3---3---3---|-3---3---3---3---| 

F|-----------------------------------|-----------------|-----------------| 
C|-----------------|-----------------|-----------------|-----------------| 
G|-----------------|-----------------|-----------------|-----------------| 
C|-3---3---3---3---|-3---3---3---3---|-3---3---3---3---|-3---3---3---3---| 

F|-----------------|-----------------|-----------------|-----------------| 
C|-----------------|-----------------|-----------------|-----------------| 
G|-----------------|-----------------|-----------------|-----------------| 
C|-0---0---0---0---|-0---0---0---0---|-0---0---0---0---|-0---0---0---0---| 

F|-----------------|-----------------|-----------------|-----------------| 
C|-----------------|-----------------|-----------------|-----------------| 
G|-1---1---1---1---|-1---1---1---1---|-1---1---1---1---|-1---1---1---1---| 
C|-----------------|-----------------|-----------------|-----------------| 

F|-----------------|-----------------|-----------------|-----------------| 
C|-----------------|-----------------|-----------------|-----------------| 
G|-----------------|-----------------|-----------------|-----------------| 
C|-3~--------------|-----------------|-----------------|-----------------| 

Happy playing! 

************************************ 

| x   Dead note 
| g   Grace note 
| (n) Ghost note 
| h   Hammer-on 
| p   Pull-off 
| r   Release 
| >   Accented note 
| t   Tapping 
| b   Bend 
| br  Bend release 
| pb  Pre-bend 
| pbr Pre-bend release 
| /   Slide up 
| \   Slide down 
| ~   Vibrato 
| s   Slap 
| P   Pop 
| PM  Palm mute 
| TR  Trill 
| N   Tremolo 

************************************ 
		  

See also:

bass Goo Goo Dolls - Slide bass Ramones - Beat On The Brat bass New Found Glory - All Downhill From Here bass B-52 - Love Shack bass Blink 182 - Adam's Song bass Blink 182 - Stay Together For the Kids
e-chords

Other versions:

bass Senses Fail - Four Years
auto scroll beats size up size down change color hide chords drawings
tab show chords e-chords YouTube Clip e-chords hide all tabs e-chords go to top tab

share