Santana

home > Santana

Corazón Espinado Bass Tab

Santana

Difficulty: EasyEasy

by Luiz+Rush+Inc%2E

tuner correct add songbook print version text version save to e-mail
chordsukulelecavacokeyboardtabbassdrumsharmonicsflute Guitar Pro
chords

Corazón Espinado

Year: 1999 - Album: Ultimate Santana

  		Verse/Chorus/Solo: 
G------------------------------ 
D-----0-0---------------------- 
A--2-----------------4---0-4--- 
E----------3-2-----2----------- 
 
Bridge: 
G---------------------------------------------------------------------------------------- 
D---------9----------------------------------9------------------------------------------- 
A--7---10-----10-7--------------------7---10-----10-7--------------------5---7-8---7-5--- 
E--------------------7---9-10---9-7---------------------7---9-10---9-7------------------- 
 
--------------------------------------------- 
--------------------------------------------- 
--------------------------------------------- 
--5---7-8---7-5-----3---5-6---5-3---2--2--2-2 

	  

Search Paypal
auto scroll beats size up size down change color hide chords drawings
tab show chords e-chords YouTube Clip e-chords hide all tabs e-chords go to top tab