Resgate

home > Resgate

Sol do Meio Dia Bass Tab

Resgate

Difficulty: nolevelnolevel

by eduardo%5Flyvio

tuner correct add songbook print version text version save to e-mail
chordsukulelecavacokeyboardtabbassdrumsharmonicsflute Guitar Pro
chords

Sol do Meio Dia

  		Intro: 
G||------|---------|| 
D||------|---------|| 
A||------|----5----|| 
E||-12/0-|-0---5-5-|| 
 
Verso: 
G||-----------------|| 
D||-----------------|| 
A||-----2-2-4-4-2-2-|| 
E||-0-0-------------|| 
 
Pre-Refrão: 
 (esse aqui eu inventei pra ficar um pouco diferente)         (original) 
G||-------------------|----------------------------||        G||-------------|| 
D||-----------2-------|-----------2-------------2~-||   OU   D||-------------|| 
A||-------2-4---4-2-4-|-------2-4---4-2-4---2-4----||        A||--------2----|| 
E||-2---2-------------|-2---2-------------5--------||        E||-2>>>-----5~-|| 
 
Refrão: 
G||-----------------|| 
D||-2-2-------------|| 
A||-----2-2-----2-2-|| 
E||---------5-5-----|| 
 
Final: 
G||---------------|-----|| 
D||-----7---------|-----|| 
A||---5-------5---|-----|| 
E||-0-------0---5-|--3--|| 
   |------2x-----| 
 
 
 

	  

Search Paypal
auto scroll beats size up size down change color hide chords drawings
tab show chords e-chords YouTube Clip e-chords hide all tabs e-chords go to top tab