Resgate

home > Resgate

Em todo lugar Bass Tab

Resgate

Difficulty: ExpertExpert

by eduardo%5Flyvio

tuner correct add songbook print version text version save to e-mail
chordsukulelecavacokeyboardtabbassdrumsharmonicsflute Guitar Pro
chords

Em todo lugar

  		E|-0-----------------------------------9-----------7-9----| 
A|---9--9h11-----------11----11-9--7-----7-9/11-9------7--| 
D|-----------9--9h11p9-----9------------------------------| 
G|--------------------------------------------------------| 
 
 
E|-0-----------------------------------9-------7-9---9-7--| 
A|---9--9h11-----------11----11-9--7-----7-9v------7------| 
D|-----------9--9h11p9-----9------------------------------| 
G|--------------------------------------------------------| 
 
 
E|-0-----------------------------------9------------------| 
A|---9--9h11-----------11----11-9--7-----7-9/11-9v--------| 
D|-----------9--9h11p9-----9------------------------------| 
G|--------------------------------------------------------| 
 
                              
E|---------------------------5-5--------------------------| 
A|-----------11---11-7-9-7---7-7--7-----------------------| 
D|-9h11----9----9------------7-7--9-----------------------| 
G|------13------------------------9-----------------------| 
 
 

	  

Search Paypal
auto scroll beats size up size down change color hide chords drawings
tab show chords e-chords YouTube Clip e-chords hide all tabs e-chords go to top tab