Ratatat

Rome

Ratatat

bass

by  DEIVCAVALCANTI

save to print version add songbook text version e-mail correct tuner
chordsukulelecavacokeyboardtabbassdrumsharmonicaflute Guitar Pro
close

there isn't a video lesson for this song

chords

Rome

	  		

Intro - Bass comes in on the off-beat at - 0:49 

G|-----------------|-----------------|-----------------|-----------------| 
D|-----------------|-----------------|-----------------|-----------------|   
A|-----------------|-----------------|-----------------|-----------------| 
E|------1-------1--|------1-------1--|-----/10-----10--|------10-----10--| 

G|-----------------|-----------------|-----------------|-----------------| 
D|-----------------|-----------------|-----------------|-----------------|   
A|-----------------|-----------------|-----------------|-----------------| 
E|-----\8-------8--|------8-------8--|-----\5-------5--|------5-------5--| 

G|-----------------|-----------------|-----------------|-----------------| 
D|-----------------|-----------------|-----------------|-----------------|   
A|-----------------|-----------------|-----------------|-----------------| 
E|-----/6-------6--|------6-------6--|-----/10-----10--|------10-----10--| 

G|-----------------|-----------------|-----------------|-----------------| 
D|-----------------|-----------------|-----------------|-----------------|   
A|-----------------|-----------------|-----------------|-----------------| 
E|-----\3-------3--|------3-------3--|-----/6-------6--|------6-------6--| 


Part I - 1:08 

G|-----------------|-----------------|-----------------|-----------------| \ 
D|-----------------|-----------------|-----------------|-----------------|  \ 
A|-----------------|-----------------|-----------------|-----------------|   | 
E|--1---1---1---1--|--1---1---1---1--|-/10--10--10--10-|--10--10--10--10-|   | 
                                                                             | 
G|-----------------|-----------------|-----------------|-----------------|   | 
D|-----------------|-----------------|-----------------|-----------------|   |  
A|-----------------|-----------------|-----------------|-----------------|   | 
E|-\8---8---8---8--|--8---8---8---8--|-\5---5---5---5--|--5---5---5---5--|   | 
                                                                             | x4 
G|-----------------|-----------------|-----------------|-----------------|   | 
D|-----------------|-----------------|-----------------|-----------------|   |  
A|-----------------|-----------------|-----------------|-----------------|   | 
E|-/6---6---6---6--|--6---6---6---6--|-/10--10--10--10-|--10--10--10--10-|   | 
                                                                             | 
G|-----------------|-----------------|-----------------|-----------------|   | 
D|-----------------|-----------------|-----------------|-----------------|   | 
A|-----------------|-----------------|-----------------|-----------------|  / 
E|-\3---3---3---3--|--3---3---3---3--|-/6---6---6---6--|--6---6---6---6--| / 


Part II - 3:10 

G|-----------------|-----------------|-----------------|-----------------| \ 
D|-----------------|-----------------|-----------------|-----------------|  \ 
A|-/8~~~~~~~~~~~~~~|~~~~~~~~~~~~-----|-----------------|-----------------|   | 
E|-----------------|------------6-6~~/10~~~~~~~~~~~~~~~|~~~~~~~~~~~~8-8~~\   | 
                                                                             | x6       
G|-----------------|-----------------|                                       | 
D|-----------------|-----------------|                                       | 
A|-------------5-7-|-8~~~~~~~~~~~~~--|                                      / 
E|-5---------------|------------3-3~~|                                     / 

Part III - 4:29 

G|-----------------| 
D|-----------------| 
A|-/8~~~~~~~~~~~~~~| 
E|-----------------|  

G|-----------------|-----------------|------------------------|----------------------| \ 
D|-----------------|-----------------|------------------------|----------------------|  \ 
A|/8-8-8-8-8-8-8-8-|-8-8-8-8-8-------|------------------------|----------------------|   | 
E|-----------------|------------6-6~~/10-10-10-10-10-10-10-10-|-10-10-10-10-10--8-8~~\   | 
                                                                                         | x4      
G|-----------------|-----------------|                                                   | 
D|-----------------|-----------------|                                                   | 
A|-----------------|-----------------|                                                  / 
E|-5-5-5-5-5-5-5~~-|-6-6-6~~~\3-3-3~~|                                                 /  



************************************ 

| /   Slide up 
| \   Slide down 

************************************ 
		  

See also:

bass Deep Purple - Burn Ver.(2) bass Deep Purple - Speed King bass Deep Purple - Into The Fire bass Deep Purple - Black Night bass Deep Purple - Lady Double Dealer bass Deep Purple - Smoke On The Water
e-chords

Other versions:

bass Ratatat - Rome bass Dire Straits - Romeo and Juliet
auto scroll beats size up size down change color hide chords drawings
tab show chords e-chords YouTube Clip e-chords hide all tabs e-chords go to top tab

share