Ramones

home > Ramones

Wanna Dance Bass Tab

Ramones

Difficulty: nolevelnolevel

by Seitoshi

tuner correct add songbook print version text version save to e-mail
chordsukulelecavacokeyboardtabbassdrumsharmonicsflute Guitar Pro
chords

Wanna Dance

  		Standard Tuning (G,D,A,E) 


Verse 
----------------------------------- 
----------------------------------- 
----------10-10-10----------7--7-7- 
-10-10-10----------10-10-10-------- 


Chorus/Bridge 
----------------------------------- 
----------------------------------- 
-7*--10-10-10-10-10-10------------- 
-----------------------10-10-10-10-
	  

Search Paypal
auto scroll beats size up size down change color hide chords drawings
tab show chords e-chords YouTube Clip e-chords hide all tabs e-chords go to top tab