Ramones

home > Ramones

The crusher Bass Tab

Ramones

Difficulty: nolevelnolevel

by Cinho+Punk+182

tuner correct add songbook print version text version save to e-mail
chordsukulelecavacokeyboardtabbassdrumsharmonicsflute Guitar Pro
chords

The crusher

  		G----------------------------------- 
D----------------------------------- 
A-3333-75--------------------------- 
E--------75-3333-1111--------------- 
         
          2x 
 
          bass solo 
 
G---------------------------------- 
D---------------------------------- 
A-3333-75-------------------------- 
E--------75-3333-1111-------------- 
 
          2x 
 
          proxima parte 
 
G---------------------------------- 
D---------------------------------- 
A-3-3-3-3-3-3-3--7-7-7-7--5-5-5-5-- 
E---------------------------------- 
 
G---------------------------------- 
D---------------------------------- 
A-3-3-3-3-3-3-3--7-7-7-7--7-7-7-7-- 
E---------------------------------- 
 
                  ref„o- crusher... 
 
G----------------------------------- 
D----------------------------------- 
A-3333-75--------------------------- 
E--------75-3333-1111--------------- 
 
            6x 
 
            bass solo 
 
G----------------------------------- 
D----------------------------------- 
A-3333-75--------------------------- 
E--------75-3333-1111--------------- 
 
            4x 
 
 
 
G---------------------------------- 
D---------------------------------- 
A-3-3-3-3-3-3-3--7-7-7-7--5-5-5-5-- 
E---------------------------------- 
 
G---------------------------------- 
D---------------------------------- 
A-3-3-3-3-3-3-3--7-7-7-7--7-7-7-7-- 
E---------------------------------- 
 
                  ref„o- crusher... 
 
G----------------------------------- 
D----------------------------------- 
A-3333-75--------------------------- 
E--------75-3333-1111--------------- 
 
            8x 
 
 
 
By: [email protected] 

	  

Search Paypal
auto scroll beats size up size down change color hide chords drawings
tab show chords e-chords YouTube Clip e-chords hide all tabs e-chords go to top tab