Ramones

home > Ramones

Rockaway Beach Bass Tab

Ramones

Difficulty: nolevelnolevel

by Cinho+Punk+182

tuner correct add songbook print version text version save to e-mail
chordsukulelecavacokeyboardtabbassdrumsharmonicsflute Guitar Pro
chords

Rockaway Beach

  		 Intro 
|-----------------|-----------------|-----------------|------------------| 
|-----------------|-----------------|-----------------|------------------| 
|-4/5-5-5-5-5-5-5-|-5-5-5-5-5-5-5-5-|-4/5-5-5-5-5-5-5-|-5-5-5-5-5-5-5-5--| 
|-----------------|-----------------|-----------------|------------------| 
 
 
 versos 
|-----------------|-----------------|-----------------|------------------| 
|-6h7-7-7-7-7-7-7-|-6h7-7-7-7-7-7-7-|-6h7-7-7-7-7-7-7-|-6h7-7-7-7-7-7-7--| 
|-----------------|-----------------|-----------------|------------------| 
|-----------------|-----------------|-----------------|------------------| 
 
|----------------|-----------------|-----------------|-----------------| 
|----------------|-----------------|-----------------|-----------------| 
|-5--5-5-5-5-5-5-|-5-5-5-5-5-5-5-5-|-7-7-7-7-7-7-7-7-|-7-7-7-7-7-7-7-7-| 
|----------------|-----------------|-----------------|-----------------| 
 
 
 Refrão (Rock, rock, rockaway beach) 
|----------------|-----------------|----------------|-----------------| 
|-7--7-7-7-7-7-7-|-7-7-7-7-7-7-7-7-|----------------|-----------------| 
|----------------|-----------------|-5--5-5-5-5-5-5-|-5-5-5-5-5-5-5-5-| 
|----------------|-----------------|----------------|-----------------| 
 
|----------------|-----------------|-----------------|-----------------| 
|-7--7-7-7-7-7-7-|-7-7-7-7-7-7-7-7-|-----------------|-----------------| 
|----------------|-----------------|-7-7-7-7-7-7-7-7-|-7-7-7-7-7-7-7-7-| 
|----------------|-----------------|-----------------|-----------------| 
 
 
 Break 
|-------------------|-------------------| 
|-5-----------------|-------------------| 
|----5--5-5-5-5-5-7-|-8--3--3-3-3-3-3-3-| 
|-------------------|-------------------| 
 
 
 Ponte (Is not hard not far to reach, we can reach a ride to rockaway beach) 
|----------------|-----------------|----------------|------------------| 
|----------------|-----------------|----------------|------------------| 
|----------------|-----------------|----------------|------------------| 
|-2--2-2-2-2-2-2-|-2-2-2-2-2-2-2-2-|-5--5-5-5-5-5-5-|-5-5-5-5-5-5-5-5--| 
 
 
|----------------|-----------------|-----------------|-----------------| 
|----------------|-----------------|-----------------|-----------------| 
|----------------|-----------------|-5-5-5-5-5-5-5-5-|-7-7-7-7-7-7-7-7-| 
|-2--2-2-2-2-2-2-|-2-2-2-2-2-2-2-2-|-----------------|-----------------| 
 
 
 depois do segundo Break (a hora q para para voltar no Refrão) 
|-----------| 
|-----------| 
|-5---------| 
|----5------| 
 
 
 
By: [email protected] 

	  

Search Paypal
auto scroll beats size up size down change color hide chords drawings
tab show chords e-chords YouTube Clip e-chords hide all tabs e-chords go to top tab