Ramones

home > Ramones

53RD & 3RD Bass Tab

Ramones

Difficulty: BeginnerBeginner

by Cinho+Punk+182

tuner correct add songbook print version text version save to e-mail
chordsukulelecavacokeyboardtabbassdrumsharmonicsflute Guitar Pro
chords

53RD & 3RD

  		main riff 
if ya think ya can... 
G---------------------------- 
D---------------------------- 
A-77777-7-5-5-5-------------- 
E--------------5-(5)--------- 
 
53rd and 3rd standin' on the street... 
G---------------------------- 
D---------------------------- 
A-5555----------------------- 
E-----5-5-3-3-5-5------------ 
 
now i've taken my razor blade... 
G---------------------------- 
D---------------------------- 
A---------------------------- 
E-7777777-55555555-77777777-- 
 
now the cops are after me... 
G---------------------------- 
D---------------------------- 
A---------------------------- 
E-3333333-5555555--3333333--- 
 
53rd and 3rd... 
G---------------------------- 
D---------------------------- 
A-77777---------------------- 
E-------7-7-5-5-7-7---------- 
 
 
 
By: [email protected] 

	  

Search Paypal
auto scroll beats size up size down change color hide chords drawings
tab show chords e-chords YouTube Clip e-chords hide all tabs e-chords go to top tab