Queen

home > Queen

Another One Bites The Dust Bass Tab

Queen

Difficulty: BeginnerBeginner

by Paulo%5F%5F

tuner correct add songbook print version text version save to e-mail
chordsukulelecavacokeyboardtabbassdrummharmonicsflute Guitar Pro
chords

Another One Bites The Dust

Year: 1980 - Album: Greatest Hits

(Jhon Deacon)

	  
Intro: 

G|------------------------------------------------------------------| 
D|------------------------------------------------------------------| 
A|-0--------------------------------0----0------------------------0-| 
E|---3---0---0---0----0-0--0--3--0---------3-0--0--0---0-0-0--3-0---| 

Verse: 

G|------------------------------------------------------------------| 
D|------------------------------------------------------------------| 
A|----------------------------------0----0------------------------0-| 
E|-------0---0---0----0-0--0--3--0---------3-0--0--0---0-0-0--3-0---| 


G|------------------------------------------------------------------| 
D|------------5---------------------------------5-------------------| 
A|-3-3--3-4-5--------3-3--3-4-5------3-3--3-4-5-------0-0--0-1-2----| 
E|----------------3---------------3----------------3--------------3-| 

G|------------------------------------------------------------------| 
D|------------------------------------------------------------------| 
A|-----2-2-1-0--0--0------------------------------------------------| 
E|-2-------------------2-----3b---0--0--0---------------------------| 



	  

there isn't a video lesson for this song

request
Search
auto scroll beats size up size down change color hide chords drawings
tab show chords e-chords YouTube Clip e-chords hide all tabs e-chords go to top tab