Pup

Full Blown Meltdown

Pup

bass

by  GUSTSILVA

save to print version add songbook text version e-mail correct tuner
chordsukulelecavacokeyboardtabbassdrumsharmonicaflute Guitar Pro
close

there isn't a video lesson for this song

chords

Full Blown Meltdown

	  		Intro 
F#|----------------------------------------------------------------------| 
C#|----------------------------------------------------------------------| 
G#|----------------------------------------------------------------------| 
C#|-0-0--0-0--0-0--0-10-10-11-0--15--12--0-12-0-15--0--15--12--0-12-0-15-| 

F#|-----------------------------------------------| 
C#|-----------------------------------------------| 
G#|-----------------------------------------------| 
C#|-0--15--12--0-12-0-15--0--15--12--0-12-0-15-17-| 

verse 1 
F#|-------------------------------------------------------------| 
C#|-------------------------------------------------------------| 
G#|-------------------------------------------------------------| 
C#|-0-0-0-0-0-0-15-15-15-15-15-15-0-0-0-0-0-0-15-15-15-15-15-15-| 

F#|-----------------------------------------------------------------| 
C#|-----------------------------------------------------------------| 
G#|-----------------------------------------------------------------| 
C#|-0-0-0-0-0-0-15-15-15-15-15-15-0-0-0-0-0-0-15-15-15-0-15-0-15-17-| 

Chorus 1 
F#|-------------------------------------------------------------------------------------| 
C#|-------------------------------------------------------------------------------------| 
G#|-------------------------------------------------------------------------------------| 
C#|-12--11--10--3--5--6--7--10--12--11--10--3--5--6--7--10--12--0-0--0-0--0-0--10-10-11-| 

verse 2 
F#|--------------------------------------------------| 
C#|--------------------------------------------------| 
G#|--------------------------------------------------| 
C#|-0--12--0--0-12-0-12--17--0--12--0--0-12-0-12--17-| 

F#|------------------------------------------------------------------------| 
C#|------------------------------------------------------------------------| 
G#|------------------------------------------------------------------------| 
C#|-0--12--0--0-12-0-12--17--0--0--0--0-12-0-15-17-0--12--0--0-12-0-12--17-| 

C#|--------------------------------------------------| 
C#|--------------------------------------------------| 
G#|--------------------------------------------------| 
C#|-0--12--0--0-12-0-12--17--0--12--0--0-12-0-12--17-| 

Chorus 2 
F#|-------------------------------------------------------------| 
C#|-------------------------------------------------------------| 
G#|-------------------------------------------------------------| 
C#|-12--11--10--3--5--6--7--10--12--11--10--3--5--6--7--10--12--| 

F#|-----------------------------------------------------------------------------------------------| 
C#|-----------------------------------------------------------------------------------------------| 
G#|-----------------------------------------------------------------------------------------------| 
C#|-0--15--12--0-12-0-15--0--15--12--0-12-0-15--17--0--15--12--0-12-0-15--0--15--12--0-12-0-15--17| 

F#|-------------------------------------------------------------------------| 
C#|-------------------------------------------------------------------------| 
G#|-------------------------------------------------------------------------| 
C#|-0--15--12--0-12-0-15--0--15--12--0-12-0-15--17--0--15--12--0-12-0-15--0-| 

Bridge 
F#|-------------------------------------------------| 
C#|-------------------------------------------------| 
G#|-------------------------------------------------| 
C#|-8-8-8--3--3-3-3-3-3-3-3-5-5-5--0--0-0-0-0-0-0-0-| 

F#|------------------------------------------------------------| 
C#|------------------------------------------------------------| 
G#|------------------------------------------------------------| 
C#|-8-8-8--3--3-3-3-3-3-3-3-5-5-5--12--12-12-12-12-12-12-15-17-| 

F#|------------------------------------------------------------| 
C#|------------------------------------------------------------| 
G#|------------------------------------------------------------| 
C#|-12--11--10--3--5--6--7--10--12--11--10--3--5--6--7--10--12-| 

F#|----------------------------------------------------------------------| 
C#|----------------------------------------------------------------------| 
G#|----------------------------------------------------------------------| 
C#|-8--7--3--5--6--7--10--12--11--10--3--5--6--7--10--0-0--0-0--0-0--0-0-| 

Outro 
F#|------------------------------------------------------------------------| 
C#|------------------------------------------------------------------------| 
G#|------------------------------------------------------------------------| 
C#|-0-0-0-0-0-0-0-0-0-0-0-0-0-0-0-0-0-0-0-0-0-0-0-0-0-0-0-0-0-0-10-10-11-0-| 
		  

See also:

bass Deep Purple - Burn (ver. 2) bass Deep Purple - Smoke On The Water (ver. 3) bass Deep Purple - Strange kind of woman bass Deep Purple - Into The Fire bass Deep Purple - Burn Ver.(2) bass Deep Purple - Smoke On The Water
e-chords

Other versions:

bass Pup - Full Blown Meltdown
auto scroll beats size up size down change color hide chords drawings
tab show chords e-chords YouTube Clip e-chords hide all tabs e-chords go to top tab

share