Pink Floyd

home > Pink Floyd

Hey You Bass Tab

Pink Floyd

Difficulty: ExpertExpert

by eduardo%5Flyvio

tuner correct add songbook print version text version save to e-mail
chordsukulelecavacokeyboardtabbassdrummharmonicsflute Guitar Pro
chords

Hey You

Year: 1979 - Album: Echoes: The Best Of Pink Floyd

  		  intro 
G|------------99-7----------------9\8/9-----------------------| 
D|---------7/9----7---------9\8/9--------77-------------------| 
A|--2-/7-----------5-\(2)-7----------------5-/(13)------2/5---| 
E|--------------------------------------------------0---------| 
 
  "Hey you out there in the cold.." 
G|------------------------------------------------------| 
D|------------------------5-4-\-------------9-7-9-------| 
A|2---2---2--2--2---5--5-------3---2--0------9-7--5--\--| 
E|---------------------------------------0--------------| 
 
  "Hey you out there on your own.." 
G|-------------------------------------------------------------------| 
D|-------------------------------------------------------------------| 
A|----------------------------------------------------------------5--| 
E|0-00--0-00--0-00--7-77--7-77--7\0-00--0-00--0-00-/7-77--7-77--75---| 
 
  "Hey you would you help me to carry.."       solo (x3) 
G|--------------------------------------------|-------------------------------------| 
D|-------5-4-\--------------------------------|-------------------------------------| 
A|5--55-------3---3---2---0-------------------|-------------------------------------| 
E|---------------3------------0000000000000000|0--00--0--00--30575--55--5--55--33220| 
 
  "it was only a fantasy.."  
G|-----------------------------------------------------------------| 
D|-----5-------------------5---------------------5-----------------| 
A|3-5----5-3----3-----3-5----5-3----3---3-03-5--5-3----3---3-------| 
E|-------------3---023-------------3-023--------------3---3--02320-| 
 
  second solo 
G|------------------------------------------9\8/9--------------------| 
D|---------2/9--9\(8)9\(8)9\8-7--------9\8/9-------77----------------| 
A|2/7-5--\------------------------7\6/7--------------5-/(13)---2/12--| 
E|----------------------------------------------------------0--------| 
 
  "Hey you out there on a road.." 
G|--------------------------------------------------------------------------------------| 
D|------------------------------------------------------5-4-\---------------------------| 
A|------------------------------------------345---5-55-5-----3---33-33--2--0-----2/757--| 
E|0--00--0--2/7--77--(2)/90--00--0--2/7--77------5--------------3--3----------0---------| 
 
submitted by Achilles  
     
 

	  

Search Paypal
auto scroll beats size up size down change color hide chords drawings
tab show chords e-chords YouTube Clip e-chords hide all tabs e-chords go to top tab