Pearl Jam

home > Pearl Jam

You Are Bass Tab

Pearl Jam

Difficulty: nolevelnolevel

by Apocalyptica

tuner correct add songbook print version text version save to e-mail
chordsukulelecavacokeyboardtabbassdrumsharmonicsflute Guitar Pro
chords

You Are

Year: 2002 - Album: Riot Act

  		 Transcribed by: Ross Duncan 
 e-mail: [email protected] 
 
 Tuning: (l-h) C F A#D# 
 
  Intro: 
 |----------------------------------------------------------------------| 
 |----------------------------------------------------------------------| 
 |--7-------------5-----5h7-------------3-----5h7--------------5--------| 
 |------0-----5----------------0-----3----------------0-----5-----------| 
 
 
  Verse: 
 |------------------------------------------7--4------------------------------------------------- 
 |------------------------------------5--7--------5---------------------------------------------- 
 |-5h7--7-7-7-7-7-7-7----5h7--7-7-7-7---------------7--5h7--7-7-7-7-7-7-7-----5h7--7-7-7-7-7-7-7- 
 |----------------------------------------------------------------------------------------------- 
 
 
 -7--4-------------------------------------------------7--4--------------------------------------- 
 -------5----------------------------------------5--7--------5------------------------------------ 
 ----------7--5h7--7-7-7-7-7-7-7----5h7--7-7-7-7----------------7--5h7--7-7-7-7-7-7-7----5h7--7-7- 
 ------------------------------------------------------------------------------------------------- 
 
 
 ------------7--4-------------------------------------------------7--4---------------------------- 
 ------------------5----------------------------------------------------5------------------5--7--- 
 -7-7-7-7-7-----------7--5h7--7-7-7-7-7-7-7----5h7--7-7-7-7-7-7-7----------7--5h7--7-7-7-7-------- 
 ------------------------------------------------------------------------------------------------- 
 
 
 --------------------7--4-------| 
 ------------------7-------5----| 
 -5h7--7-7-7-7-7-7------------7-| 
 -------------------------------| 
 
 
  Chorus: 
 |-------------------------------------------------------------------------------------------| 
 |-------------------------------------------------------------------------------------------| 
 |-5h7--------------5-----5h7-------------3-----5h7--------------5-----5h7--------------3----| 
 |--------0-----5----------------0-----3----------------0-----5----------------0-----3-------| 
 
 
  2nd Verse: 
 |-------------------------------------------7--4-------------------------------------------------- 
 |-------------------------------------------------5----------------------------------------------- 
 |-5h7--7-7-7-7-7-7-7----5h7--7-7-7-7-7-7-7-----------7--5h7--7-7-7-7-7-7-7-----5h7--7-7-7-7-7-7-7- 
 |------------------------------------------------------------------------------------------------- 
 
 
 -7--4---------------------------------------------------------------------------------------------------- 
 -------5-----7-----5-----7-----5-----7-----5-----8--7--5------7-----5-----7-----5------------------------ 
 ----------7-----7-----7-----7-----7-----7-----7------------7-----7-----7-----7-----7--5h7--7-7-7-7-7-7-7- 
 --------------------------------------------------------------------------------------------------------- 
 
 
 -------------------------------------------7--4---------------------------------------------------- 
 ----------------------------------------7--------5------------------------------------------------- 
 -5h7--7-7-7-7-7-7-7----5h7--7-7-7-7-7-7-------------7--5h7--7-7-7-7-7-7-7-----5h7--7-7-7-7-7-7-7--- 
 --------------------------------------------------------------------------------------------------- 
 
 
 -7--4-------------------------------------------------7--4---------------------------------------- 
 -------5----------------------------------------------------5------------------------------------- 
 ----------7--5h7--7-7-7-7-7-7-7----5h7--7-7-7-7-7-7-7----------7--5h7--7-7-7-7-7-7-7----5h7--7-7-- 
 -------------------------------------------------------------------------------------------------- 
 
 
 ------------7--4-------| 
 ------------------5----| 
 -7-7-7-7-7-----------7-| 
 -----------------------| 
 
 
  2nd Chorus: 
 |-------------------------------------------------------------------------------------------------------| 
 |-------------------------------------------------------------------------------------------------------| 
 |-5h7-------------5-----5h7-------------3-----5h7-------------5-----5h7------------3----5h7-----------5-| 
 |--------0-----5---------------0-----3---------------0-----5---------------0-----3-------------0----5---| 
 
 
  Bridge: 
 |----------------------------------------------------------------------------------------------- 
 |----------------------------------------------------------------------------------------------- 
 |-7----7--------3----3-0----0-7----7--------3----3-0----0-5----5-7----7--------3----3-0----0-7-- 
 |--------3----3----------------------3----3-----------------------------3----3------------------ 
 
 
 --------------------------| 
 --------------------------| 
 -7--------3----3-0----0-5-| 
 ---3----3-----------------| 
 
 
  Last Chorus/Outro 
 |-7--4-----------------------------------------------------------------------------------------| 
 |-------5--------------------------------------------------------------------------------------|   Fade Out 
 |----------7--5h7------------3----5h7------------5-----5h7--------------3-----5h7-----------5--| 
 |--------------------0----3--------------0-----5-----------------0-----3-------------0----5----| 
	  

Search Paypal
auto scroll beats size up size down change color hide chords drawings
tab show chords e-chords YouTube Clip e-chords hide all tabs e-chords go to top tab