Pearl Jam

home > Pearl Jam

Sometimes Bass Tab

Pearl Jam

Difficulty: nolevelnolevel

by Apocalyptica

tuner correct add songbook print version text version save to e-mail
chordsukulelecavacokeyboardtabbassdrummharmonicsflute Guitar Pro
chords

Sometimes

Year: 1996 - Album: Live: 07-11-03 Mansfield, MA

(Pearl Jam)

  		Transcribed by: Ross Duncan 
e-mail: [email protected] 
 
Comments: Jeff plays this song on a fretless bass, but it sounds 
          fine with a fretted one. 
    
  Bass enters at cd time 0:10  
-|------------------------------------------------------------------------|- 
-|------7-6---------7-6/9\-----7-6---------7-6/9\-----7-6---------7-6/9\--|- 
-|-5--------7--5----------5--------7--5----------5--------7--5----------5-|- 
-|------------------------------------------------------------------------|- 
 
                                           1:04 
-|---------------------------------------------------------------------------|- 
-|----7-6---------7-6/9\----------------------10----------------10\----------|- 
-|--------7--5----------8----7--------------8----8---7\3/8---7/----8---7\3/8-|- 
-|---------------------------------------------------------------------------|- 
 
 
-|--------------------------------------------------------------------------|- 
-|------8-8-8-8-8-8-8-8-9-9-9-9-9-9-9-9-10-10-10-10-10-10-10-10-7-7-7-7-7-7-|- 
-|--7\3---------------------------------------------------------------------|- 
-|--------------------------------------------------------------------------|- 
 
 
-|--------------------------------------------------------------------------|- 
-|-7-7-8-8-8-8-8-8-8-8-9-9-9-9-9-9-9-9-10-10-10-10-10-10-10-10-8-8-8-8-8-8-8|- 
-|--------------------------------------------------------------------------|- 
-|--------------------------------------------------------------------------|- 
 
 
-|--------------------------------------------------------------------------|- 
-|-8-9-9-9-9-9-9-9-9-10-10-10-10-10-10-10-10-8-8-8-8-8-8-8-8-9--------------|- 
-|--------------------------------------------------------------------------|- 
-|--------------------------------------------------------------------------|- 
 
 
 Outro: 
 
-|----------------------------|- 
-|-------------------------10\|- Repeat outro until end of song. 
-|-8---10-7---3/8---10-7------|- 
-|----------------------------|- 
 
 
 
 

	  

Search Paypal
auto scroll beats size up size down change color hide chords drawings
tab show chords e-chords YouTube Clip e-chords hide all tabs e-chords go to top tab