Pearl Jam

home > Pearl Jam

Save You Bass Tab

Pearl Jam

Difficulty: nolevelnolevel

by Apocalyptica

tuner correct add songbook print version text version save to e-mail
chordsukulelecavacokeyboardtabbassdrumsharmonicsflute Guitar Pro
chords

Save You

  		Transcribed by: Ross Duncan 
 e-mail: [email protected] 
 
 Tuning: Standard 
 
  Intro/1st Verse: 
 |----------------------------------------------------------------------------------- 
 |------5-7-7br5---------------------5-7-7br5---------------------5-7-7br5----------- 
 |--7-7--------------------------7-7--------------------------7-7-------------------- 
 |---------------8--8-8--8-8-8----------------8--8-8--8-8-8----------------8--8-8--8- 
 
 
 ------------------------------------------------------------------------------------ 
 -----------5-7-7br5---------------------5-7-7br5---------------------5-7-7br5-7--7-7 
 -------7-7--------------------------7-7--------------------------7-7---------------- 
 -8-8----------------8--8-8--8-8-8----------------8--8-8--8-8-8---------------------- 
 
 
 ------------------------------------------------------------------------------------ 
 --7-7-7------5-7-7br5---------------------5-7-7br5---------------------5-7-7br5----- 
 ---------7-7--------------------------7-7--------------------------7-7-------------- 
 ----------------------8--8-8--8-8-8----------------8--8-8--8-8-8----------------8--8 
 
 
 --------------------------------------| 
 ----------------5-7-7br5-----5-7-7br5-| 
 ------------7-7----------7-7----------| 
 -8--8-8-8-----------------------------| 
 
 
  1st Chorus: 
 |---------------------------------------------------------------------------------- 
 |---------------------------------------------------------------------------------- 
 |-3--3-3-3---3---5-5-5---5---7-7-7-7-7---7---10-10--10-10--3-3-3-3-3-3---3--5-5--5- 
 |----------3-----------5---------------7-------------------------------3----------- 
 
 
 ----------------------------------------------------------------------------------- 
 ----------------------------------------------------------------------------------- 
 -5---5---7-7-7-7-7---7---10-10--10-10--3--3-3-3-3-3---3--5-5--5-5---5--7-7--7-7---7 
 ---5---------------7--------------------------------3-------------5-------------7-- 
 
  
 --------------------------------| 
 --------------------------------| 
 -5--5-5-5-5-5-5-5-5-5-5-5-5-5-5-| 
 --------------------------------| 
 
   
  2nd Verse: 
 |----------------------------------------------------------------------------------- 
 |------5-7-7br5---------------------5-7-7br5---------------------5-7-7br5----------- 
 |--7-7--------------------------7-7--------------------------7-7-------------------- 
 |---------------8--8-8--8-8-8----------------8--8-8--8-8-8----------------8--8-8--8- 
 
 
 ------------------------------------------------------------------------------------ 
 -----------5-7-7br5-7--7-7--7-7-7------5-7-7br5---------------------5-7-7br5-------- 
 -------7-7-------------------------7-7--------------------------7-7----------------- 
 -8-8--------------------------------------------8--8-8--8-8-8----------------8--8-8- 
 
 
 ----------------------------------------------------------------| 
 -------------5-7-7br5---------------------5-7-7br5-----5-7-7br5-| 
 ---------7-7--------------------------7-7----------7-7----------| 
 -8-8-8----------------8--8-8--8-8-8-----------------------------| 
 
 
  
  2nd Chorus: 
 |---------------------------------------------------------------------------------- 
 |-----------------------------------------------9----------9----------------------- 
 |-3--3-3-3---3---5-5-5---5---7-7-7-7-7---7---10---10-10-10---3--3-3-3-3-3---3--5-5- 
 |----------3-----------5---------------7----------------------------------3-------- 
 
 
 ----------------------------------------------------------------------------------- 
 -------------------------------9--------------------------------------------------- 
 -5-5-5---5---7-7--7-7---7---10---10-10-10-10-3--3-3--3-3---3---5-5-5---5---7-7-7--- 
 -------5--------------7----------------------------------3-----------5-----------7- 
 
 
 -----------------------------------------------------------| 
 -----------------------------------------------------------| 
 -7---5-5-5---5---7-7-7-7-7--5--5-5-5-5-5-5-5-5-5-5-5-5-5-5-| 
 -----------5-----------------------------------------------| 
 
 
  Bridge/3rd Verse: 
 |----------------------------------------------------------------------------------- 
 |------5-7-7br5---------------------5-7-7br5---------------------5-7-7br5----------- 
 |--7-7--------------------------7-7--------------------------7-7-------------------- 
 |---------------8--8-8--8-8-8----------------8--8-8--8-8-8----------------8--8-8--8- 
 
  
 ------------------------------------------------------------------------------------ 
 -----------5-7-7br5-----5-7-7br5---------------------5-7-7br5---------------------5- 
 -------7-7----------7-7--------------------------7-7--------------------------7-7--- 
 -8-8-----------------------------8--8-8--8-8-8----------------8--8-8--8-8-8--------- 
 
 
 ------------------------------------------------------------------------------------ 
 -7-7br5---------------------5-7-7br5--------------------5-7-7br5-----5-7-7br5-----5- 
 ------------------------7-7-------------------------7-7----------7-7----------7-7--- 
 --------8--8-8--8-8-8----------------8--8-8--8-8-8---------------------------------- 
 
 
 ------------------------------------------------------------------------------------ 
 -7br5-----5-7-7br5-----5-7-7br5-----5-7-7br5-----5-7-7br5-----5-7-7br5-----5-7-7br5- 
 ------7-7----------7-7----------7-7----------7-7----------7-7----------7-7---------- 
 ------------------------------------------------------------------------------------ 
 
 
 ------------------------------------------------------------------------------------ 
 --------------------5-7-7br5--------------------5-7-7br5--------------------5-7-7br5 
 ----------------7-7-------------------------7-7-------------------------7-7--------- 
 -8--8-8--8-8-8---------------8--8-8--8-8-8---------------8--8-8--8-8-8-------------- 
 
 
 ------------------------------------------------------------------------------------ 
 -7--7-7--7-7-7------5-7-7br5--------------------5-7-7br5--------------------5-7-7br5 
 ----------------7-7-------------------------7-7-------------------------7-7--------- 
 -----------------------------8--8-8--8-8-8---------------8--8-8--8-8-8-------------- 
 
 
 ------------------------------------------| 
 --------------------5-7-7br5-----5-7-7br5-| 
 ----------------7-7----------7-7----------| 
 -8- 

	  

Search Paypal
auto scroll beats size up size down change color hide chords drawings
tab show chords e-chords YouTube Clip e-chords hide all tabs e-chords go to top tab