Pearl Jam

home > Pearl Jam

Satan's bed Bass Tab

Pearl Jam

Difficulty: nolevelnolevel

by Apocalyptica

tuner correct add songbook print version text version save to e-mail
chordsukulelecavacokeyboardtabbassdrumsharmonicsflute Guitar Pro
chords

Satan's bed

  		by - pearl jam 
transcriber - William Stevens, [email protected] 
 
 
intro (somebody's foolin around with the devil) 
 
after the second guitar measure do this 
(you should hear the song for good timing) 
G:----------------------------------------------------------------- 
D:----------------------------------------/14-14-14-14-14-14-14-14- 
A:----0--(another guitar measure)---0------------------------------ 
E:--0------------------------------0------------------------------- 
 
verse 
G:----------------------------------------------------------------- 
D:----------------------------------------------------------------- 
A:-0-0-4-0-0-4-0-0-4-0--------------------------------------------- 
E:----------------------4-3-0-0------------------------------------ 
 
Chorus 
G:----------------------------------------------------------------- 
D:----------------------------------------------------------------- 
A:-3---5------------------------------------------------------------- 
E:---3---5----------------------------------------------------------- 
 
bridge (i like to throw little things in here, as long as its in key) 
G:----------------------------------------------------------------- 
D:----------------------------------------------------------------- 
A:-0-0-0-0-0-0-0-0-0-0-0-0-0-0-0-0-0-0----------------------------- 
E:----------------------------------------------------------------- 
 
end with a Chorus 
	  

Search Paypal
auto scroll beats size up size down change color hide chords drawings
tab show chords e-chords YouTube Clip e-chords hide all tabs e-chords go to top tab