Pearl Jam

home > Pearl Jam

Sad Bass Tab

Pearl Jam

Difficulty: BeginnerBeginner

by Apocalyptica

tuner correct add songbook print version text version save to e-mail
chordsukulelecavacokeyboardtabbassdrumsharmonicsflute Guitar Pro
chords

Sad

Year: 2003 - Album: Lost Dogs: Rarities and B Sides

  		Transcribed by: Ross Duncan 
email: [email protected] 
 
Created for giventowail.com 
 
Standard tuning 
 
Intro: 
|--------------------------| 
|--------------------------| 
|--------5-5-5-----8-8-8---| 
|--------------------------| 
 
 
Verse: 
|-------------------------------------| 
|-------------------------------------|    play 6 times 
|---5-5-5---5-x5----8-8---8-8---------| 
|-------------------------------5--x5-| 
 
 
 
 
Chorus: 
|------------------------------------------------------------------  play 2  
times 
|------------------------------------------------------------------ 
|-5--5--5-5-5-5--5-5--5-5-5-5-(7)-(7)-8--8---8-8-8-----------------  notes  
in parenthesis played on 2nd 
|--------------------------------------------------5--5-5--5-5-5-5-  and 3rd  
Choruses only 
 
 
 
-------------------------------------------------------------------------------------- 
-------------------------------------------------------------------------------------- 
---------------------------5--5--5-5-5------------------------------------------------ 
-6--6--6-6-6-5--5-5-5--5-5-------------1--1-1-1-1-1-1-1--6--6--6-6-6-5--5-5-5-5-5-5-5- 
 
 
 
-------------------------------------------------| 
-------------------------------------------------| 
-5--5--5-5-5-8--8-8-8-8-8-8-8--------------------| 
------------------------------6--6--6-6-6-5--5-5-| 
 
 
Repeat Verse 
 
Repeat Chorus 
 
 
 
Bridge: 
|---------------------------------------------------------------------------- 
|---------------------------------------------------------------------------- 
|-5--5--5-----5--3-----3--3--3-3-3----------------3--3--3-3-3---------------- 
|-------------------5--------------5--5-5-5-5-5-5-------------5--5-5-5-5-5-5- 
 
 
---------------------------------------------------------------------------- 
---------------------------------------------------------------------------- 
-5--5--5-----5--3-----3--3--3-3-3----------------3--3--3-3-3---------------- 
-------------------5--------------5--5-5-5-5-5-5-------------5--5-5-5-5-5-5- 
 
 
----------------------------| 
----------------------------| 
-3--3--3-3-3----------------| 
-------------5--5-5-5-5-5-5-| 
 
 
 
Guitar Solo: 
|---------------------------------------------------------------------------------- 
|---------------------------------------------------------------------------------- 
|-8--8-8-8-8-8-7--7-7-7-7-7-7-7--------------3--3-3-3-3-3-3-3-8--8--8-8-8-7--7-7-7- 
|-------------------------------5--5-5-5-5-5--------------------------------------- 
 
 
--------------------------------------------------------| 
--------------------------------------------------------| 
-7-7-7-7-------------3--3-3-5--5-7-7-8--8-8-8--8-8-8--8-| 
---------5--5--5-5-5------------------------------------| 
 
 
 
Repeat Chorus 
	  

Search Paypal
auto scroll beats size up size down change color hide chords drawings
tab show chords e-chords YouTube Clip e-chords hide all tabs e-chords go to top tab