Pearl Jam

home > Pearl Jam

Rats Bass Tab

Pearl Jam

Difficulty: nolevelnolevel

by MoRtE%2D

tuner correct add songbook print version text version save to e-mail
chordsukulelecavacokeyboardtabbassdrumsharmonicsflute Guitar Pro
chords

Rats

Year: 1993 - Album: Vs. [Jewel Case & EcoPak]

Key:  E5 More
Rats Key B5B5
Rats Key C5C5
Rats Key C#5C#5
Rats Key D5D5(one step down)
Rats Key D#5D#5(half step down)
Rats Key E5E5(original key)
Rats Key F5F5(half step up)
Rats Key F#5F#5(one step up)
Rats Key G5G5
Rats Key G#5G#5
Rats Key A5A5
Rats Key A#5A#5
  		Intro (Chords - E5 F5 G5) 
  
 Verse (Chords - E5 F5 G5) 

 E5              F5 G5 
 They Don't Eat, Don't Sleep 
 E5                    F5 G5 
 They Don't Feed, They Don't Seethe 
 E5                             F5 G5 
 Bare Their Gums When They Moan And Squeek 
 E5                         F5 G5 
 Like The Dirt Off A Larger One's Feet 
 E5               F5 G5 
 They Don't Push, Don't Crowd 
 E5                            F5 G5 
 Congregate Until They're Much Too Loud 
 E5                          F5 G5 
 Fuck To Procreate Till They Are Dead 
 E5                                F5 G5 
 Drink The Blld Of Their So Called Best Friend 

 Chorus (Chords - A5 B5 C5) 
 They Don't Scurry When Something Bigger Comes Their Way 
 Don't Pack Themselves Together And Run As One 
 Don't Shit Where They're Not Suppose To 
 Don't Take What's Not Their, They Don't Compare 

 Verse (Chords - E5 F5 G5) 

 E5               F5 G5 
 They Don't Scam, Don't Fight 
 E5                      F5 G5 
 Don't Opress An Equal's Given Rights 
 E5                             F5 G5 
 Starve The Poor So They Can Be Well Fed 
 E5                             F5 G5 
 Line Their Holes With The Dead One's Bread 

 Chorus (Chords - A5 B5 C5) 
 They Don't Scurry When Something Bigger Comes Their Way ) 
 Don't Pack Themselves Together And Run As One           ) (2x) 
 Don't Shit Where They're Not Suppose To                 ) 
 Don't Take What's Not Their, They Don't Compare         ) 

 Bridge (Chords - Bb5 C5 G5) 
 Ben, The Two Of Us Need Look No More ) (5x) 

bass line (roughly) 
|--------------------------------------------------------------------- 
|-2--------------------2---------------------------------------------- 
|--------------------------------------------------------------------- 
|---0-0-1-3-3-3-1-1-0----0-0-1-3-3-3-1-1-0---------------------------- 
|--------------------------------------------------------------------- 
|--------------------------------------------------------------------- 
|--------------------------------------------------------------------- 
|---5------------5---------------------------------------------------- 
|--------------------------------------------------------------------- 
|--------------------------------------------------------------------- 
during verse guitars do this: 
|--------------------------------------------------------------------- 
|--------------------------------------------------------------------- 
|--------9\--x-x-x-x-/9----------------------------------------------- 
|--------9\--x-x-x-x-/9----------------------------------------------- 
|--------7\--x-x-x-x-------------------------------------------------- 
|--0--0--------------------------------------------------------------- 
chorus: A B C 
fill that Mike plays during chorus: 
|--------------------------------------------------------------------- 
|-10------------10------10-----10------------------------------------- 
|-12b-----------12b-----12b----12b------------------------------------ 
|--------------------------------------------------------------------- 
|---unison bends------------------------------------------------------ 
|--------------------------------------------------------------------- 
after chorus and 2nd verse: 
|-----0-------------------0------------------------------------------- 
|-----0-------------------0------------------------------------------- 
|-----1--0--2b-2b-0-------1--0--2b-2b-0------------------------------- 
|-2-2----0------------2-2----0---------------------------------------- 
|-2-2-----------------2-2--------------------------------------------- 
|-0-0-----------------0-0--------------------------------------------- 
|guitar two: 
|--------------------------------------------------------------------- 
|--------------------------------------------------------------------- 
|--------9\--x-x-x-x-/9----------------------------------------------- 
|--------9\--x-x-x-x-/9----------------------------------------------- 
|--------7\--x-x-x-x-------------------------------------------------- 
|--0--0--------------------------------------------------------------- 
chorus: A B C 
solo with wah: this isn't complete 
|----------------------------12b----12---------12-----------12-------- 
|--10b-11-10-8-10-10--12-15------15----15--15b----15-12-15b----15-12-- 
|--------------------------------------------------------------------- 
|--------------------------------------------------------------------- 
|--------------------------------------------------------------------- 
|--------------------------------------------------------------------- 
|-----12-12-----12-12------------------------------------------------- 
|-15b-------15b---------12h15p12-10-12-12----------------------------- 
|-----------------------------------------10-12-10-9-10--------------- 
|--------------------------------------------------------------------- 
|--------------------------------------------------------------------- 
|--------------------------------------------------------------------- 
|-17-15-------------17-15--------------15-17-18b---------------------- 
|-------17-14-15-17-------17-14-15-17--------------------------------- 
|--------------------------------------------------------------------- 
|--------------------------------------------------------------------- 
|--------------------------------------------------------------------- 
|--------------------------------------------------------------------- 
chorus 
then 
C B Bb C G 
Bb C G-this till end 
	  

Full key step upFull key step up
Half key step upHalf key step up
Half key step downHalf key step down
Full key step downFull key step down
Search Paypal
auto scroll beats size up size down change color hide chords drawings
tab show chords e-chords YouTube Clip e-chords hide all tabs e-chords go to top tab