Pearl Jam

home > Pearl Jam

Push me, pull me Bass Tab

Pearl Jam

Difficulty: nolevelnolevel

by Apocalyptica

tuner correct add songbook print version text version save to e-mail
chordsukulelecavacokeyboardtabbassdrumsharmonicsflute Guitar Pro
chords

Push me, pull me

Year: 1998 - Album: Yield

(Yield)

  		Transcribed by: Shaun Boer 
Email: [email protected] 
 
I have to give all the credit to Evan Cowan for the main riff. 
It's just adapted it from his guitar tab. 
(Well, copied it right out in fact...) 
 
This tab just contains the individual parts of the song. 
Standard Tunning 
 
G|-----------------------|--------------------------|------------------------- 
D|----------------0-h-2--|----------------0-h-2--0--|------------------------- 
A|-----0-h-2-p-0---------|-----0-h-2-p-0------------|------------------------- 
E|--0--------------------|--0-----------------------|------------------------- 
  Verse riff         x3 then...                      Repeat whole lot x4       
 
-|-------------------------------------------------------|-------------------- 
-|-------------------------------------------------------|-------------------- 
-|---------------5-5-5-5-5-5-----------------------------|-------------------- 
-|--2--2-2-2-2-2-------------5-5-5-5-5-5-5-5-5-5-5-5-5-5-|-------------------- 
  Chorus                                                                       
 
-|----------------------------------------------------|----------------------- 
-|----------------------------------------------------|----------------------- 
-|--2-2-2-2-2-2---------------------------------------|----------------------- 
-|---------------3-3-3-3-3-3--2-2-2-2-2-2-2-2-2-2-2-2-|----------------------- 
                                                                               
 
-|-----9------------7--------9-\--|------------------------------------------- 
-|--------7-h-9--7-----9----------|------------------------------------------- 
-|--7---------------------7-------|------------------------------------------- 
-|--------------------------------|------------------------------------------- 
  Bridge                       x4                                              
	  

Search Paypal
auto scroll beats size up size down change color hide chords drawings
tab show chords e-chords YouTube Clip e-chords hide all tabs e-chords go to top tab