Pearl Jam

home > Pearl Jam

MFC Bass Tab

Pearl Jam

Difficulty: nolevelnolevel

by Apocalyptica

tuner correct add songbook print version text version save to e-mail
chordsukulelecavacokeyboardtabbassdrumsharmonicsflute Guitar Pro
chords

MFC

Year: 1998 - Album: Live: 07-11-03 Mansfield, MA

(Yield)

  		Transcribed by: Shaun Boer 
Email: [email protected] 
 
There's only really three parts to this bass line and they're 
easy as, so have fun! 
 
 
-|---------------------------------------------|------------------------------ 
-|----------5----------------------------------|------------------------------ 
-|---------------------------------------------|------------------------------ 
-|--3--3--3---3--3--3--3--3--3--3--3--3--3--3--|------------------------------ 
  Main riff       I didn't count these...                                      
 
-|---------------------|---------------------|-------------------------------- 
-|----3----------------|----3----------------|-------------------------------- 
-|------5-5-5-5--3--0--|------5-5-5-5--3--0--|-------------------------------- 
-|--1------------------|--1------------------|-------------------------------- 
  Verse                                                                        
 
-|---------------------------------------------------------------------------- 
-|---------------------------------------------------------------------------- 
-|--1-1-1-1-1-1-1-1-----------------1-1-1-1-1-1-1-1--------------------------- 
-|------------------1-1-1-1-1-1-1-1-----------------1-1-1-1-1-1-1-1----------- 
  Chorus                                                                       
 
-|-------------------------------------------------------|--------|----------- 
-|-------------------------------------------------------|--------|----------- 
-|--1-1-1-1-1-1-1-1-----------------1-1-1-1-1-1-1-1---3--|--------|----------- 
-|------------------1-1-1-1-1-1-1-1----------------------|--1-----|----------- 
                                                          End on F             
 
 
 
 
 

	  

Full key step upFull key step up
Half key step upHalf key step up
Half key step downHalf key step down
Full key step downFull key step down
Search Paypal
auto scroll beats size up size down change color hide chords drawings
tab show chords e-chords YouTube Clip e-chords hide all tabs e-chords go to top tab