Pearl Jam

home > Pearl Jam

Lukin Bass Tab

Pearl Jam

Difficulty: nolevelnolevel

by Apocalyptica

tuner correct add songbook print version text version save to e-mail
chordsukulelecavacokeyboardtabbassdrumsharmonicsflute Guitar Pro
chords

Lukin

Year: 1996 - Album: Live: 9-4-00 - Washington, DC

  		Transcribed by: Ross Duncan 
e-mail: [email protected] 
 
Verse: 
 
 bass enters at cd time 0:12 
-|-----------------------------------------------------------------------|- 
-|------------------------------5-5-5------------------------------5-5-5-|- 
-|-7-7-7-7-7--5-5-5--7-7-7-7-7--------7-7-7-7-7--5-5-5--7-7-7-7-7--------|- 
-|-----------------------------------------------------------------------|- 
 
-|------------------------------------------------------------------------|- 
-|------------------------------5-5-5-------------------------------5-5-5-|- 
-|-7-7-7-7-7--5-5-5--7-7-7-7-7---------7-7-7-7-7--5-5-5--7-7-7-7-7--------|- 
-|------------------------------------------------------------------------|- 
 
Chorus: 
 
|---------------------------------------5--------------------------------------|- 
|-------------------------------------5---5-----------10-----12-12-------12----|- 
|-7--7-7--7-7-7----5--5-5--5-5-5----3----------3--/10----10--------12-12----12-|- 
|------------------------------------------------------------------------------|-           
 
Verse: 
 
-|-----------------------------------------------------------------------|- 
-|------------------------------5-5-5------------------------------5-5-5-|- 
-|-7-7-7-7-7--5-5-5--7-7-7-7-7--------7-7-7-7-7--5-5-5--7-7-7-7-7--------|- 
-|-----------------------------------------------------------------------|- 
   
-|------------------------------------------------------------------------|- 
-|------------------------------5-5-5-------------------------------5-5-5-|- 
-|-7-7-7-7-7--5-5-5--7-7-7-7-7---------7-7-7-7-7--5-5-5--7-7-7-7-7--------|- 
-|------------------------------------------------------------------------|- 
 
 
 

	  

Search Paypal
auto scroll beats size up size down change color hide chords drawings
tab show chords e-chords YouTube Clip e-chords hide all tabs e-chords go to top tab