Pearl Jam

home > Pearl Jam

Immortality Bass Tab

Pearl Jam

Difficulty: BeginnerBeginner

by Apocalyptica

tuner correct add songbook print version text version save to e-mail
chordsukulelecavacokeyboardtabbassdrumsharmonicsflute Guitar Pro
chords

Immortality

  		Album:Vitalogy 
Transcribed by: Ross Duncan 
e-mail: [email protected] 
 
Verse: 
bass enters after 4 bars 
G|--------------------------------------------------------------------- 
D|---------------------------------------4-5--------------------------- 
A|-7-------5---5-7--7-9--10\7-------5--5-----7--7-7-5------7-------5--- 
E|-----5-7----------------------5-7--------------------5-7-----5-7----- 
							   Vacate... 
 
  --------------------------------------------------------------------- 
  ---4-5--------------------------4-5-------------------------4-5------ 
  -5-----7--7-9---10\7-------5--5-----7---5------7-------5--5-----7--7- 
  -----------------------5-7-----------------5-7-----5-7--------------- 
		     Cannot find...              Artificial... 
 
  ---------------------------------| 
  -----------------------4-5-------| 
  -7-9---10/7-------5--5-----7--7/5| 
  --------------5-7----------------| 
	    Vulnerable.. 
 
Chorus: 
|---------------------------------------------------------------| 
|------------------------------------------------------------10\| 
|-3-3-3-3/7-----3-3-3-3/7-----3-3-3-3-/7-/12--12------10-12-----| 
|--------------------------------------------------12-----------| 
 
 
For first solo and next verse, repeat the first verse with pattern variations 
 
Repeat Chorus 
 
2nd Solo: 
|------------------------------------------------------------------------ 
|-------------------------------4-5-------------------------------------- 
|-7-------5--5-7-7-7-------5--5-----7----5------7----9---10\7-------5--5- 
|-----5-7--------------5-7------------------5-7-----------------5-7------ 
 
 
 ------------------------------------------------------------------------ 
 -4-5-------------------------------------------------------------------- 
 -----7--7-5------7--7-5---5-5-7---7-7-9--10\7--7-5--7-7-7-7-3-/7-7-5--7- 
 -------------5-7-------------------------------------------------------- 
 
 
 ------------------------------------------------------------------------ 
 ------------------------------------------------------------------------ 
 -7-7-7-3-/7-7-5--7-7-7-7-3-/7-7-5--7-7-7-7-3-/12----12-/12-/12-/12----10 
 -------------------------------------------------12----------------12--- 
 
 
 --------------------------| 
 ----------------------10\-| 
 ----12-12-12-12-12-12----7| 
 -12-----------------------| 
 
Bass pauses for 4 bars 
 
3rd Verse: 
|------------------------------------------------------------------------ 
|---------------------------9-9-9-9-7-7-7-7-----------------9-9-9-9-7-7-7 
|-7--7-9--9-7-7-7-7-7-7-7-7-----------------7-7-7-7-7-7-7-7-------------- 
|------------------------------------------------------------------------ 
  Cannot stop..				    Coming up... 
 
 ----------------------------------| 
 -7--------------------------------| 
 ---7-7-7-7-7-7-7-7-5-5-5-5-5-5-5-5| 
 ----------------------------------| 
    All good... 
 
Last Chorus and Outro: 
|------------------------------------------------------------------------ 
|------------------------------------------------------------------------ 
|-3-3-3-3/7-----3-3-3-3/7-----3-3-3-3-/7-/12-12\-3-3-3-3/7-----3-3-3-3/7- 
|------------------------------------------------------------------------ 
 
 
 ----------------------------------------------------14------------------ 
 --------------------------------------------11--/14----14--12-11-------- 
 ----3-3-3-3-/7-/12------10--12--------12-14-------------------------12-- 
 ---------------------12------------------------------------------------- 
 
 
 ----------------------------14------14----14----14-------/14-14----/14-- 
 ------------------------/14------14----14----14----14\7----------------- 
 -----------12------12--------------------------------------------------- 
 -12\5------------------------------------------------------------------- 
 
 
 -/14-/14-/14-12-11-12-11-9---------------------------| 
 ------------------------------------------------11---| 
 ------------------------------12--------10---12----12| 
 -----------------------------------/12---------------| 
 
Repeat final five notes several times and fade out. 
 

	  

Search Paypal
auto scroll beats size up size down change color hide chords drawings
tab show chords e-chords YouTube Clip e-chords hide all tabs e-chords go to top tab