Pearl Jam

home > Pearl Jam

Get Right Bass Tab

Pearl Jam

Difficulty: nolevelnolevel

by Apocalyptica

tuner correct add songbook print version text version save to e-mail
chordsukulelecavacokeyboardtabbassdrumsharmonicsflute Guitar Pro
chords

Get Right

Year: 2002 - Album: Riot Act

  		 Transcribed by: Ross Duncan 
 e-mail: [email protected] 
 
 Tuning: Standard 
 
  Intro/1st Verse: 
 |---------------------------------------------------------------------------- 
 |----------------------------------------------7----------------------------- 
 |--------------------------5-5-----------5-7-9---9-7-------7-7--5------------ 
 |--7/--------3-3-3-5--7-7-------7-7--5-7--------------7-7----------3-3-3-5--7 
 
					      Pre-Chorus: 
 --------------------------------------------|-------------------------------- 
 ---------7---9-7----------------------------|-------------------------------- 
 ---5-7-9---9-----9-7-5---------7-5----------|-----5-5------------------5----- 
 -7----------------------7-7--7-------3-3-3-5|-7-7-----5-7-5-7--7-2-5-7-----7- 
 
 
 -----------------------------------------------------------| 
 -------------------------7---9-7---------------------------| 
 ---7-5-------------5-7-9---9-----9-7-5--------7-5----------| 
 -7------3-3-3-5--7---------------------7-7--7------3-3-3-5-| 
 
 
  Chorus: 
 |------------------------------------------------------| 
 |------------------------------------------------------| 
 |-7-7--5--5-5----------7-7--5--5-5----------7-7--5-5-5-| 
 |--------------3-3-3-5-------------3-3-3-5-------------| 
 
 
  2nd Verse: 
 |--------------------------------------------------------------------------- 
 |-----------------------7---------------------------------7---9-7----------- 
 |---------5-------5-7-9---9-7-----7-5-5-------------5-7-9---9-----9-7-5----- 
 |-7-7-5-7---7-5-7-------------7-7--------3-3-3-5--7---------------------7-7- 
 
 
		     Pre-Chorus: 
 -------------------|-------------------------------------------------------- 
 -------------------|------------------------7------------------------------- 
 ---7--5-5----------|-----5------------5-7-9---9-7------7-7-5-------------5-7 
 -7---------3-3-3-5-|-7-7---7-5-7-5-7---------------7-7--------3-3-3-5--7---- 
 
 
 ---------------------------------------------------------------------------- 
 ---7---9-7------7----------------------------------------------------------- 
 -9---9-----9--9---9-7-----7-5---------------5--------------------5---------7 
 ----------------------7-7------3-3-3-5--7-7---7-5-7-5-7--7-2-5-7---7-7-7-7-- 
 
 
 ------------------------------------------------------------| 
 ---------------------7---9-7-----------7--------------------| 
 -5-------------5-7-9---9-----9-7-5-7-9---9-----7-5----------| 
 ----3-3-3-5--7-----------------------------7-7------3-3-3-5-| 
 
 
  Chorus:                                                                 1/2 
 |--------------------------------------------------------------------------- 
 |--------------------------------------------------------------------------- 
 |-7-7--0-5--5-5----------7-7-7--5--5-5-----------7--7-7--5--5-5---7-7-5-7br5 
 |----------------3-3-3-5----------------3-3-3-5----------------------------- 
 
 
 --------------------| 
 --------------------| 
 --------------------| 
 -7-------7--3-3-3-5-| 
 
 
  Bridge: 
 |--------------------------------------------------------------------------- 
 |--------------------------------------------------------------------------- 
 |-7--7--7-7-7---7-7-7-7-7-7-7--7-7-7--3-3-3-5--7--7--7-7-7---7-7-7-7-7-7-7-- 
 |--------------------------------------------------------------------------- 
 
 
 ---------------------------------------------------------------------------- 
 ---------------------------------------------------------------------------- 
 ---------------------------------------------------------------------------- 
 -3-5--7-7-7--10-10-10--9-9-9--8-8-8--7-7-7--10-10-10--9-9-9--8-8-8--7-7-7--- 
 
 
 ------------------------------------------------------------| 
 ------------------------------------------------------------| 
 ------------------------------------------------------------| 
 -10-10-10--9-9-9--8-8-8--9-9-9--8-8-8--7-7-/12--10--3-3-3-5-| 
 
 
  Chorus: 
 |--------------------------------------------------------------------------- 
 |--------------------------------------------------------------------------- 
 |-7-7-7--5-5-5-----------7-7-7--5-5-5-----------7-7-7--5-5-5-----------7-7-7 
 |---------------3-3-3-5----------------3-3-3-5----------------3-3-3-5------- 
 
                  1/2 
 ---------------------| 
 ---------------------| 
 --5-5-5---7-7-5-7br5-| 
 ---------------------|  
 
 |----------------------| 
 |----------------------|8 more times 
 |-7-7-7--5-5-5---------| 
 |---------------3-3-3-5| 
 
 |---------------------------| 
 |---------------------------|4 times 
 |-7-7-7--5-5-5-/10-10-10-12-| 
 |---------------------------| 
 
 |----------------------| 
 |----------------------|Repeat and fade 
 |-7-7-7--5-5-5---------| 
 |---------------3-3-3-5| 
	  

Search Paypal
auto scroll beats size up size down change color hide chords drawings
tab show chords e-chords YouTube Clip e-chords hide all tabs e-chords go to top tab