Pearl Jam

home > Pearl Jam

Cropduster Bass Tab

Pearl Jam

Difficulty: nolevelnolevel

by Apocalyptica

tuner correct add songbook print version text version save to e-mail
chordsukulelecavacokeyboardtabbassdrumsharmonicsflute Guitar Pro
chords

Cropduster

Year: 2002 - Album: Riot Act

  		 Transcribed by: Ross Duncan 
 e-mail: [email protected] 
 
 Tuning: Standard 
 
  Intro/1st Verse: 
 |----------------------------------------------------------------------------------- 
 |---------------5h7-5---------------------0-5-4-------------0-5-4-------------0-5-4- 
 |-----1-3-5---5-------------1-0--5-7-5-3--------0--5-7-5-3--------0--5-7-5-3-------- 
 |-1-3-------------------1-3--------------------------------------------------------- 
 
 
 ------------------------------------------------------------------------------------ 
 -------------0-5-4---------------------------------------------------------------0-5 
 -0--5-7-5-3--------0--5-7-5---------/8-8-8-8-8-8-8-8-7-7-7-7-7-7-7-7-0--5-7-5-3----- 
 ----------------------------3-3-3-3------------------------------------------------- 
 
 
 -----------------------------------------------------------------------------------| 
 -4-------------0-5-4-------------0-5-4---------------------------------------------| 
 ---0--5-7-5-3--------0--5-7-5-3--------0--5-7-5---------/8-8-8-8-8-8-8-8-7-7-7-7-7-| 
 ------------------------------------------------3-3-3-3----------------------------| 
 
  Pre Chorus: 
 |----------------------------------------------------------------------------------| 
 |----------------------------------------------------------------------------------| 
 |---4--4-4-4-4--6--6-6--7-7-7-7-7---4--4-4-4-4--6--6-6--7-7-7-7-7---4--4--4--4--4-4| 
 |-4-------------------------------4-------------------------------4----------------| 
 
 
  Chorus: 
 |---------------------------------------------------------------------------------- 
 |---------------------------------------------------------------------------------- 
 |-3-2-0---5-5--7-7-7-7-7---3--3-3-3-3--5-5--7-7-7-7-7---3--3-3-3-3--5-5--7-7-7-7-7- 
 |-------3----------------3----------------------------3---------------------------- 
 
 
 -----------------| 
 ----10=9-7-------| 
 -10--------10----| 
 --------------10-| 
 
 
 Guitar Solo/2nd Verse: 
 |---------------------------------------------------------------------------------- 
 |-------------0-5-4-7-----------0-5-4-7-----------0-5-4-7------------0-5-4--------- 
 |-0--5-7-5-3-----------5-7-5-3-----------5-7-5-3------------5-7-5-3--------0--5-7-5 
 |---------------------------------------------------------------------------------- 
 
 
 ----------------------------------------------------------------------------------- 
 ----0-5-4------------0-5-4-----------------0-5-4----------------------------------- 
 -3--------0--5-7-5-3-------5-3-0--5-7-5-3--------0--5-7-5----------------/8-8-8-8-8 
 ----------------------------------------------------------3--3-3-3-3-3-3----------- 
 
 
 -----------------| 
 -----------------| 
 -8-8-8-7-7-7-7-7-| 
 -----------------| 
 
 Repeat Pre-Chorus 
 
  Bridge: 
 |--------------------------------------------------------------------------------- 
 |---9------5------2------5------------------9------5------2------5---------------- 
 |-7---7--3---3--0---0--3---3--5-5-5-5-5---7---7--3---3--0---0--3---3--5-5-5-5-5--- 
 |---------------------------------------7---------------------------------------7- 
 
  
 -----------------------------------------| 
 ---9------5------2------5----------------| 
 -7---7--3---5--0---0--3---3--5-5-5-5-5---| 
 ---------------------------------------7-| 
 
 
  Outro: 
 |--------------------------------------------------------------------------------- 
 |------------------------------------------------------4-----------------------4-- 
 |-----1-3-5---------1-3-5--5---5--5-5------1-3-5--5--5---5-5-5--------1-3-5--5---5 
 |-1-3-----------1-3----------5---------1-3---------------------5--1-3------------- 
 
 
 ---------------------------------------------------------------------------------- 
 -------------------4-------4-------------------4-------4-/7-5-4------------------4 
 -5-5--------1-3-5----5---5---5----------1-3-5----5---5----------5-----1-3-5--5-5-- 
 -----5--1-3------------5-------5-5--1-3------------5--------------1-3------------- 
 
 
 ----------------------------11---------------------------------------------------- 
 ------------------------/12----12-12----------------4------------------------4---- 
 -5-5-5--------1-3-5--5---------------12\-----1-3-5----5-5-5-5-5-5\-----1-3-5---5-- 
 -------5--1-3----------------------------1-3-----------------------1-3-----------5 
 
 --------------------| 
 -----4-/7-5---------| Fade Out 
 -5-5------------1-3-| 
 ------------1-3-----| 
	  

Search Paypal
auto scroll beats size up size down change color hide chords drawings
tab show chords e-chords YouTube Clip e-chords hide all tabs e-chords go to top tab