Pearl Jam

home > Pearl Jam

Breakerfall Bass Tab

Pearl Jam

Difficulty: nolevelnolevel

by Apocalyptica

tuner correct add songbook print version text version save to e-mail
chordsukulelecavacokeyboardtabbassdrumsharmonicsflute Guitar Pro
chords

Breakerfall

Year: 2000 - Album: Live: 07-11-03 Mansfield, MA

  		Transcribed by: Ross Duncan 
e-mail: [email protected] 
 
 Intro: 
G|---------------------------|----|play the second part after 
D|-/14-14-14-/14-14-14-/14-14|-14\|playing the first part 
A|---------------------------|----|eight times. 
E|---------------------------|----| 
 
 
 Verse: 
|-------------------------------------------------------------------------- 
|-------------------------------------------------------------------------- 
|-------------------------------------------------------------------------- 
|-0-0-0-0-0-0-0-0-0-0-0-0-0-0-0-0-0-0-0-0-0-0-0-0-0-0-0-0-0-0-0-0-0-0-0-0-0 
  There's a girl... 
 
 -------------------------------------------------------------------------- 
 -------------------------------------------------------------------------- 
 -------------------------------------------------------------------------- 
 -0-0-0-0-0-0-0-0-0-0-0-3-3-3-3-3-3-3-3-5-5-5-5-5-5-5-5-0-0-0-0-0-0-0-0-0-0 
  all the love..					 Now her life... 
 
 
 -------------------------------------------------------------------------- 
 -------------------------------------------------------------------------- 
 -------------------------------------------------------------------------- 
 -0-0-0-0-0-0-3-3-3-3-3-3-3-3-5-5-5-5-5-5-5-5-0-0-0-0-0-0-0-0-0-0-0-0-0-0-0 
              blame the world... 
 
 
 ----------------------------------| 
 ----------------------------------| 
 ----------------------------------| 
 -0-3-3-3-3-3-3-3-3-5-5-5-5-5-5-5-5| 
    only love... 
 
 Chorus: 
|-------------------------------------------------------------------------- 
|-------------------------------------------------------------------------- 
|--------7\----------------------7\----------------------7\---------------- 
|-0--0------2-2-2-2-5-5-5-0--0------2-2-2-2-5-5-5-0--0------2-2-2-2-5-5-5-0 
 Breakerfall..                    
 
 ------------------------| 
 ------------------------| 
 ------7\----------------| 
 --0------2-2-2-2-5-5-5-0| 
 
 Repeat Verse, 
 
 Repeat Chorus, 
 
 Bridge: 
|-9----11----12----14------------------------------------------------------ 
|-----------------------14-14-14-12-12-12-11-11-12-12-12-11-11-11-9-9------ 
|-------------------------------------------------------------------------- 
|---------------------------------------------------------------------3-3-3 
 
 
 --------------------------| 
 --------------------------| 
 --------------------------| 
 -3-3-3-3-3-5-5-5-5-5-5-5-5| 
 
 
 Outro: 
|-------------------------------------------------------------------------- 
|-14-14-14-12-12-12-11-11-12-12-12-11-11-11-9-9---------------------------- 
|-----------------------------------------------10-10-10-10-10-10-10-10-12- 
|-------------------------------------------------------------------------- 
 
 
 ---------------------| 
 ---------------------| Play three times 
 -12-12-12-12-12-12-12| 
 ---------------------| 
 
 
|----------------------------------------------------------------|---| 
|----------------------------------------------------------------|---| 
|-7-7-7-5-5-5-4-4-5-5-5-4-4-4-2-2--------------------------------|-7-| 
|---------------------------------3-3-3-3-3-3-3-3-5-5-5-5-5-5-5-5|---| 
 
Play the first part twice and end with the second part. 
	  

Search Paypal
auto scroll beats size up size down change color hide chords drawings
tab show chords e-chords YouTube Clip e-chords hide all tabs e-chords go to top tab