Pearl Jam

home > Pearl Jam

All Night Bass Tab

Pearl Jam

Difficulty: nolevelnolevel

by Apocalyptica

tuner correct add songbook print version text version save to e-mail
chordsukulelecavacokeyboardtabbassdrumsharmonicsflute Guitar Pro
chords

All Night

Year: 2003 - Album: Lost Dogs: Rarities and B Sides

  		Transcribed by: Ross Duncan 
email: [email protected] 
 
Created for giventowail.com 
 
Standard tuning 
 
Verse: 
|---------------------------------| 
|---------------------------------|   play 8 times with slight variation 
|---------------------------------| 
|--7-7-0-2--2-2-2-2-2-2-2-2-2-2-2-| 
 
 
 
|---------------------------------| 
|---------------------------------|   play once 
|---------------------------------| 
|-/7-7-7-5--5-5-5-5-5-5-5-5-5-5-5-| 
 
 
 
|---------------------------------| 
|---------------------------------|   play 4 times 
|---------------------------------| 
|--7-7-0-2--2-2-2-2-2-2-2-2-2-2-2-| 
 
 
 
|---------------------------------| 
|---------------------------------|   play once 
|---------------------------------| 
|-/7-7-7-5--5-5-5-5-5-5-5-5-5-5-5-| 
 
 
 
Chorus: 
|-------------------------------------------------------------------------------------------- 
|-------------------------------------------------------------------------------------------- 
|--------7-7-7-7-7-7-7-7-7-7-7-7-7-7-----7-7-7-7-7-7-7-7-7-7-7-7-7-7-----7-7-7-7-7-7-7-7-7-7- 
|--7-7-7-----------------------------7-7-----------------------------7-7--------------------- 
 
 
----------------------------------------| 
----------------------------------------| 
-7-7-7-7-----7-7-7-7-7-7-7-7-7-7-7-7-7--| 
---------7-7----------------------------| 
 
 
 
Verse: 
|---------------------------------| 
|---------------------------------|   play 8 times with slight variation 
|---------------------------------| 
|--7-7-0-2--2-2-2-2-2-2-2-2-2-2-2-| 
 
 
|---------------------------------| 
|---------------------------------|   play once 
|---------------------------------| 
|-/7-7-7-5--5-5-5-5-5-5-5-5-5-5-5-| 
 
 
 
|---------------------------------| 
|---------------------------------|   play 2 times 
|---------------------------------| 
|--7-7-0-2--2-2-2-2-2-2-2-2-2-2-2-| 
 
 
 
 
Repeat Chorus 
 
 
Bridge: 
|--------------------------------| 
|--------------------------------|   play twice 
|--------------------------------| 
|-2-2-2-7--7-7-7-7-7-7-7-7-7-7-7-| 
 
 
|---------------------------------------------------------------| 
|---------------------------------------------------------------| 
|-------7--7-7-7-7-7-7-7-7-7-7-7--------------------------------| 
|-2-2-2--------------------------7-7-7-2--2-2-2-2-2-2-2-2-2-2-2-| 
 
 
 
|--------------------------------| 
|--------------------------------|   play twice 
|--------------------------------| 
|-2-2-2-7--7-7-7-7-7-7-7-7-7-7-7-| 
 
 
|---------------------------------------------------------------| 
|---------------------------------------------------------------| 
|-------7--7-7-7-7-7-7-7-7-7-7-7--------------------------------| 
|-2-2-2--------------------------7-7-7-2--2-2-2-2-2-2-2-2-2-2-2-| 
 
 
 
|--------------------------------| 
|--------------------------------|   play twice 
|--------------------------------| 
|-2-2-2-7--7-7-7-7-7-7-7-7-7-7-7-| 
 
 
 
 
 
Repeat Chorus twice with pause in between 
 
 
 
Outro: 
|--------------------------------------------------------------------------------- 
|--------------------------------------------------------------------------------- 
|-7-7-7-7-7-7-7-7-7-7-7-7-7-7-9-9-11-11-11-11-11-11-11-11-11-11-11-11-11-11-12-12- 
|--------------------------------------------------------------------------------- 
 
 
 
------------------------------------------------------------------------------------- 
------------------------------------------------------------------------------------- 
-14-14-14-14-14-14-14-14-14-14-14-14-14-14-16-16-17-17-17-17-17-17-17-17-17-17-17-17- 
------------------------------------------------------------------------------------- 
 
 
-------------| 
-------------| 
-17-17-17-17-| 
-------------| 
 
 
|-----------------------------------| 
|-----------------------------------|  Play 4 times 
|-----------------------------------| 
|-0-2-2-2-2-2-2-2-2-2-2-2-2-2-2-2-2-| 
 
 
 
|------------------------------------------------------------------| 
|------------------------------------------------------------------| Repeat  
and fade 
|-9-9-9-9-9-9-9-9-7-7-7-7-7-7-7-7--9-9-9-9-9-9-/12\7-7-7-7-7-7-7-7-| 
|------------------------------------------------------------------| 
	  

Search Paypal
auto scroll beats size up size down change color hide chords drawings
tab show chords e-chords YouTube Clip e-chords hide all tabs e-chords go to top tab