Paul McCartney

home > Paul McCartney

Must Do Something About It Bass Tab

Paul McCartney

Difficulty: nolevelnolevel

by ang%2Dletra

tuner correct add songbook print version text version save to e-mail
chordsukulelecavacokeyboardtabbassdrumsharmonicsflute Guitar Pro
chords

Must Do Something About It

  		
Bass starts on 00:18 

verse 1 : 
G|---------------------------------|---------------------------------| 
D|---------------------------------|---------------------------------| 
A|6--------------------------------|---------------------------------| 
E|---------------------------------|6--------------------------------| 

G|---------------------------------|---------------------------------| 
D|---------------------------------|----------------------------1----| 
A|3-----------------------3---2----|1-----------2---3----------------| 
E|---------------------------------|---------------------------------| 

G|---------------------------------| 
D|3--------------------------------| 
A|------------------------3---2----| 
E|----------------1----------------| 

Chorus : 
G|---------------------------------|---------------------------------| 
D|---------------------------------|---------------------------------| 
A|1-----------1---1----------------|1-----------1---1-------3---\----| 
E|---------------------------------|---------------------------------| 

G|---------------------------------|---------------------------------| 
D|---------------------------------|------------------------0--------| 
A|1---------------1----------------|1---------------1----------------| 
E|---------------------------------|---------------------------------| 

verse 2 : 
G|---------------------------------|---------------------------------| 
D|1---------------1----------------|---------------------------------| 
A|---------------------------------|1---------------1-----------2----| 
E|---------------------------------|---------------------------------| 

G|---------------------------------|---------------------------------| 
D|---------------------------------|----------------------------2----| 
A|3---------------3-------3---2----|1-----------2---3----------------| 
E|---------------------------------|---------------------------------| 

G|---------------------------------| 
D|3--------------------------------| 
A|------------3-----------3---2----| 
E|----------------1----------------| 

Chorus : 
G|---------------------------------|------------------------3--------| 
D|---------------------------------|----------------0/5--------------| 
A|1-----------1---1----------------|1-----------1--------------------| 
E|---------------------------------|---------------------------------| 

G|---------------------------------|---------------------------------| 
D|---------------------------------|---------------------------------| 
A|1-----------1---1----------------|1-----------1---1----------------| 
E|---------------------------------|---------------------------------| 

Bridge : 
G|---------------------------------|---------------------------------| 
D|---------------------------------|---------------------------------| 
A|1---------------1-------4---5----|6-----------6---6----------------| 
E|---------------------------------|---------------------------------| 

G|---------------------------------|---------------------------------| 
D|---------------------------------|---------------------------------| 
A|---------------------------------|4-----------4---4----------------| 
E|4-----------4---4----------------|---------------------------------| 

G|---------------------------------|---------------------------------| 
D|---------------------------------|---------------------------------| 
A|------------------------4--------|6-----------6---6-----------6----| 
E|2-----------2-/-6----------------|---------------------------------| 

G|---------------------------------|---------------------------------| 
D|---------------------------------|---------------------------------| 
A|---------------------------------|---------------------------------| 
E|6-------------------6------------|6-------------------4---1---4----| 

G|---------------------------------|---------------------------------| 
D|----------------------------3----|1-----------1---1----------------| 
A|1-----------1---1----------------|---------------------------------| 
E|---------------------------------|---------------------------------| 

G|---------------------------------|---------------------------------| 
D|---------------------------------|----------------------/-3--------| 
A|----------------------------6----|4---------------4----------------| 
E|4---------------4----------------|---------------------------------| 

G|---------------------------------|---------------------------------| 
D|4---------------4-------3--------|1-----------1---1----------------| 
A|------------4--------------------|---------------------------------| 
E|---------------------------------|---------------------------------| 

G|---------------------------------|---------------------------------| 
D|---------------------------------|----------------1-------1--------| 
A|1---1-----------1---1-------1----|1---1---1---1/3------------------| 
E|---------------------------------|---------------------------------| 

verse 3 : 
G|------------------------0-/-5----|3-------\------------------------| 
D|1---------------1----------------|---------------------------------| 
A|------------1--------------------|------------1---1-----------2----| 
E|---------------------------------|---------------------------------| 

G|---------------------------------|---------------------------------| 
D|---------------------------------|----------------------------2----| 
A|3---------------3-------3---2----|1-----------2---3----------------| 
E|---------------------------------|---------------------------------| 

G|---------------------------------| 
D|3--------------------------------| 
A|------------------------3---2----| 
E|----------------1----------------| 

Chorus : 
G|---------------------------------|---------------------------------| 
D|---------------------------------|---------------------------------| 
A|1---------------1----------------|1---------------1-------3---2----| 
E|---------------------------------|---------------------------------| 

G|---------------------------------|------------------------0--------| 
D|------------------------3---2----|1-----------1---1----------------| 
A|1-----------1---1----------------|---------------------------------| 
E|---------------------------------|---------------------------------| 

G|1---------------1---0------------|---------------------------------| 
D|------------0--------------------|3---------------3----------------| 
A|---------------------------------|--------------------6---\--------| 
E|---------------------------------|---------------------------------| 

G|---------------------------------|---------------------------------| 
D|---------------------------------|---------------------------------| 
A|1---1---1-------1---1---1--------|1---1---1---1---1---1---1--------| 
E|------------1---------------1----|---------------------------------| 

verse 4 : 
G|------------------------0-/-5----|3-------\------------------------| 
D|1-----------1---1----------------|---------------------------------| 
A|---------------------------------|------------1---1----------------| 
E|---------------------------------|---------------------------------| 

G|---------------------------------|---------------------------------| 
D|---------------------------------|----------------------------2----| 
A|3-----------3---3-------3---2----|1-----------2---3----------------| 
E|---------------------------------|---------------------------------| 

G|---------------------------------| 
D|3--------------------------------| 
A|------------3-----------3---2----| 
E|----------------1----------------| 

Chorus : 
G|---------------------------------|---------------------------------| 
D|---------------------------------|---------------------------------| 
A|1-----------1---1----------------|1---1-------1---1-------3---2----| 
E|---------------------------------|---------------------------------| 

G|---------------------------------|---------------------------------| 
D|------------------------8--------|8-----------5---3----------------| 
A|1-----------1---1---1/8----------|------------------------1--------| 
E|---------------------------------|---------------------------------| 

Verse 5 : 
G|------------------------0-/-5----|3-------\------------------------| 
D|1-----------1---1----------------|---------------------------------| 
A|---------------------------------|------------1---1-----------2----| 
E|---------------------------------|---------------------------------| 

G|---------------------------------|---------------------------------| 
D|---------------------------------|----------------------------2----| 
A|3---------------3-------3---2----|1---------------3----------------| 
E|------------3--------------------|---------------------------------| 

G|---------------------------------| 
D|3--------------------------------| 
A|------------3-----------3---2----| 
E|----------------1----------------| 

Chorus : 
G|---------------------------------|---------------------------------| 
D|---------------------------------|---------------------------------| 
A|1-------1-------1-------1--------|1---------------1-------3---2----| 
E|---------------------------------|---------------------------------| 

G|---------------------------------|---------------------------------| 
D|------------------------8---8----|8-------5-------3-----/-6--------| 
A|1-------1-------1---1/8----------|---------------------------------| 
E|---------------------------------|---------------------------------| 

G|---------------------------------|---------------------------------| 
D|------------------------8--------|8-------5-------3----------------| 
A|1-----------1---1---1/8----------|---------------------------------| 
E|---------------------------------|---------------------------------| 

G|---------------------------------|---------------------------------| 
D|---------------------------------|------------------------8--------| 
A|1-----------1---1-------3---2----|1-----------1---1---1/8----------| 
E|---------------------------------|---------------------------------| 

G|---------------------------------|---------------------------------| 
D|---------------------------------|------------------------8--------| 
A|1-------1-------1-------1--------|1-------1-------1---1/8----------| 
E|---------------------------------|---------------------------------| 

G|---------------------------------|---------------------------------| 
D|8-------8-------8-------8--------|8-------8---5---8---5---3---\----| 
A|---------------------------------|---------------------------------| 
E|---------------------------------|---------------------------------| 

G|---------------------------------|---------------------------------| 
D|---------------------------------|------------------------8---8----| 
A|1-------1-------1----------------|1-------1-----------1/8----------| 
E|---------------------------------|---------------------------------| 

G|---------------------------------|--------------| 
D|---------------------------------|--------------| 
A|6--------------------------------|--------------| 
E|---------------------------------|--------------| 

Outro : 
G|----------------8----------------|---------------------------------| 
D|6-------8---------------8--------|6-------4-------6-------8--------| 
A|---------------------------------|---------------------------------| 
E|---------------------------------|---------------------------------| 

G|8---\----------------------------|---------------------------------| 
D|---------------------------------|---------------------------------| 
A|--------6------------------------|---------------------------------| 
E|---------------------------------|---------------------------------| 

G|----------------8----------------|---------------------------------| 
D|6-------8---------------8--------|6---\-----------6-------8--------| 
A|---------------------------------|--------6------------------------| 
E|---------------------------------|---------------------------------| 

G|8---\----------------------------|---------------------------------| 
D|---------------------------------|---------------------------------| 
A|--------6------------------------|----4---6------------------------| 
E|---------------------------------|---------------------------------| 

************************************ 

| /  Slide up 
| \  Slide down 

************************************ 
	  

Search Paypal
auto scroll beats size up size down change color hide chords drawings
tab show chords e-chords YouTube Clip e-chords hide all tabs e-chords go to top tab