Odd Future

Orange Juice

Odd Future

bass Expert expert

by  CARLLUZ

save to print version add songbook text version e-mail correct tuner
chordsukulelecavacokeyboardtabbassdrumsharmonicaflute Guitar Pro
close

there isn't a video lesson for this song

chords

Orange Juice

	  		 

 0:13                                            (Intro) 
G|-------------------------------------------------------------------------| 
D|---------------------3-5--7-8---------3-5------------8-7-5---------------| 
A|-------------------------------------------------3/7---------------------| 
E|--3-3-3------1/3-3-3-----------3-3-3-------3-3-3-----------5-7-3-1-------| 

  "So Im Guessin" 
G|-------------------------------------------------------------------------| 
D|------------------------5--------------------------------------------5---| 
A|----------------------3---------------------3333-5------------------3----| 
E|-3-3-4-3-1---3-3-4-3-----3-3-4-3-1---3-3-4-3----3-3-4-3-1---3-3-4-3------| 

 "No FX"                                1:00 
G|-------------------------------------------------------------------------| 
D|-------------------------------------------------------------------------| 
A|------------------------5------------------------------------------------| 
E|-3-3-4-3-1---3-3-4----3--3-4-3-1--3-3-4---3-3-4-3-1---3-3-4--------------| 

 "Please Get Out Your Seat"                                              X2 
G|-------------------------------------------------------------------------| 
D|----------------------------------3555555535-----------55555535----------| 
A|----------33333333--------3333335-----------33333333-----------33333333--| 
E|--33333333--------33333333-----------------------------------------------| 

 "Fuck With The Wolves" (Tylers Verse) 
G|-----------------------|-----|--------------------------------------------| 
D|---------------------5-|Pause|--------------------------------------------| 
A|--------------------3--|-----|-5--------------------------------------3333| 
E|-3-3-4-3-1---3-3-4-3---|-----|3-3-4-3-1---3-3-4---3-3-4-3-1---3-3-4-3-----| 

G|----------------------------------------------------------------------------| 
D|----------------------------------------------------------------------------| 
A|-5--------------------------------------------------------------------------| 
E|3-3-4-3-1---3-3-4---3-3-4-3-1---3-3-4-3-1---3-3-4-3-1---3-3-4-3---3-3-4-3-1-| 

     "From the Palms" 
G|-------|-------------------------------------------------------------------| 
D|-------|-----------------------------------3555555535----------55555535----| 
A|-------|----------33333333---------333335-------------33333333-------------| 
E|3-3-4--|33333333---------------3333----------------------------------------| 

                                                  "Overweight Vegetarians" 
G|--------|-----------------------------------------------------------------| 
D|--------|-----------------------------------355555535----------55555535---| 
A|33333333|----------33333333-----------333335----------33333333------------| 
E|--------|-33333333----------33333333--------------------------------------| 


G|---------------------------------------------------------------------------| 
D|-------------------5-------------------------------------------------------| 
A|--5---------------3---------------------3333-5-----------------------------| 
E|-3-3-4-3---3-3-4-3---3-3-4-3-1---3-3-4-3----3-3-4-3-1---3-3-4---3-3-4-3-1--| 

G|-----------------------------------------------------|---------------------| 
D|-----------------------------------------------------|---------------------| 
A|------------5--------------------5-------------------|----------33333333---| 
E|-3-3-4-3---3-3-4-3-1---3-3-4-3-1---3-3-34-3-1---3-3-4|-33333333------------| 

G|-------------------------------------------------| FIN. 
D|-------------------355555535----------55555535---| 
A|----------33333335-----------33333333----------33| 
E|-33333333----------------------------------------|  
		  

See also:

bass Nelly - Airforce Ones bass Akon - Lonely Baixo bass Eminem - 8 Mile (ver. 2) bass Beastie Boys - Intergalactic bass Eminem - Say Goodbye Hollywood bass Beastie Boys - Alright Hear This
e-chords

Other versions:

bass Odd Future - Orange Juice
auto scroll beats size up size down change color hide chords drawings
tab show chords e-chords YouTube Clip e-chords hide all tabs e-chords go to top tab

share