Nx Zero

home > Nx Zero

Vício Bass Tab

Nx Zero

Difficulty: nolevelnolevel

by LINEKERS

tuner correct add songbook print version text version save to e-mail
chordsukulelecavacokeyboardtabbassdrumsharmonicsflute Guitar Pro
chords

Vício

	  
F#|-----9---11-----12---11-11---9-11-|
C#|-9-9---9----9-9----9-------9------|
G#|----------------------------------|
D#|----------------------------------|

F#|-------14----12----14-------------|
C#|-12-12----12----12----------------|
G#|----------------------------------|
D#|----------------------------------|

F#|-----7---6---4--------------------|
C#|-4-4---4---4----------------------|
G#|----------------------------------|
D#|----------------------------------| 
	  

there isn't a video lesson for this song

request
Search Paypal
auto scroll beats size up size down change color hide chords drawings
tab show chords e-chords YouTube Clip e-chords hide all tabs e-chords go to top tab