Nx Zero

Uma Chance

Nx Zero

bass

by  VELHO

save to print version add songbook text version e-mail correct tuner
chordsukulelecavacokeyboardtabbassdrumsharmonicaflute Guitar Pro
close

there isn't a video lesson for this song

chords

Uma Chance

Year: 2005 - Album: Diálogo?

	  		I hope someday will come...INTRO E VOZ 1(depois da guitarra)   

4x   
-------------------------------------------------------------   
-------------------------------------------------------------   
-444-2-444-2-444-2-4-2---------------------------------------   
-----------------------------0000-2-4/77777------------------   

Se ajoelha e faça as sua preçes...PARTE  A    

-------------------------------------------------------------   
-------------------------------------------2-----------------   
-44444444444-------22222-44444444444-------------------------   
-------------00000-------------------00000-------------------   

Uma chance!Não desisto de tentar...REFRAO   

-------------------------------------------------------------   
-------------------------------------------------------------   
--------------------------------------77-66-44-22------------   
-55555555-00000000-55555555-00000000-------------------------   

-------------------------------------------------------------   
-------------------------------------------------------------   
-------------------------------------------------------------   
-55555555-00000000-55555555-0--------------------------------   

Cego?Sim,sou eu!Certa é você!...POS-REFRAO   

2x   
-------------------------------------------------------------   
-------------------------------------------------------------   
-222222222---------------------------------------------------   
-----------444444444-222222222-000000000---------------------   

INTRO   

2x   
-------------------------------------------------------------   
-------------------------------------------------------------   
-444-2-444-2-444-2-4-2---------------------------------------   
-----------------------------0000-2-4/77777------------------   

2x   
-------------------------------------------------------------   
-------------------------------------------------------------   
-4-7-6-5-4-7-6-5-4-7-6-5-4-7-6-5-----------------------------   
---------------------------------0000-2-4/77777--------------   

Mas de novo eu tentei...PARTE  B    

-------------------------------------------------------------   
-----------------------------------------------2-------------   
-4444444444-------22-2-0-2-0-4444444444----------------------   
-----------000000-----------------------000000---------------   

Uma chance!Não desisto de tentar...REFRAO   

-------------------------------------------------------------   
-------------------------------------------------------------   
--------------------------------------77-66-44-22------------   
-55555555-00000000-55555555-00000000-------------------------   

-------------------------------------------------------------   
-------------------------------------------------------------   
-------------------------------------------------------------   
-55555555-00000000-55555555-0--------------------------------   

Insturmental.PARTE  C    

-9-8-9-8-9-8-9-8-9-8-9-8-9-8-9------------------------------------------------------   
--8-8-8-8-8-8-8-8-8-8-8-8-8-8-------------------------------------------------------   
--------------------------------444444444444-222222222222---------------------------   
----------------------------------------------------------5555555555555-000000000000   

------------------------------------------------------------------------------------   
------------------------7-88888888-99999999999999-----------------------------------   
-44444444444-7-88888888-------------------------------------------------------------   
------------------------------------------------------------------------------------   

2x   
------------------------------------------------------------------------------------   
------------------------------------------------------------------------------------   
-444444444444-222222222222----------------------------------------------------------   
--------------------------5555555555555-000000000000--------------------------------   

------------------------------------------------------------------------------------   
------------------------------------------------------------------------------------   
---------22-44-------22-44-------22-44-------22-44----------------------------------   
-22-44-5------22-44-5-----22-44-5-----22-44-5---------------------------------------   

Eu só queria, uma chance...REFRAO   
6x   
------------------------------------------------------------------------------------   
------------------------------------------------------------------------------------   
------------------------------------------------------------------------------------   
-555555555555-000000000000----------------------------------------------------------   

Cego?Sim,sou eu!Certa é você!...POS-REFRAO   
2x   
-------------------------------------------------------------   
-------------------------------------------------------------   
-222222222---------------------------------------------------   
-----------444444444-222222222-000000000---------------------   

Final.PARTE  D    

2x   
------------------------------------------------------------------------------------   
------------------------------------------------------------------------------------   
-444444444444-222222222222----------------------------------------------------------   
--------------------------5555555555555-000000000000--------------------------------   


		  

See also:

bass Forfun - Sigo O Som bass Strike - Paraiso Perdido bass Anti-Flag - Culture Revolution bass CPM 22 - Não sei viver sem ter você bass Nx Zero - Promessa bass Super Soda - Super Soda
e-chords

Other versions:

bass Nx Zero - Uma Chance
auto scroll beats size up size down change color hide chords drawings
tab show chords e-chords YouTube Clip e-chords hide all tabs e-chords go to top tab

share