Nx Zero

home > Nx Zero

Promessa Bass Tab

Nx Zero

Difficulty: nolevelnolevel

by abrah%E3o

tuner correct add songbook print version text version save to e-mail
chordsukulelecavacokeyboardtabbassdrumsharmonicsflute Guitar Pro
chords

Promessa

Year: 2005 - Album: Diálogo?

Key:  Em More
Promessa Key BmBm
Promessa Key CmCm
Promessa Key C#mC#m
Promessa Key DmDm(one step down)
Promessa Key D#mD#m(half step down)
Promessa Key EmEm(original key)
Promessa Key FmFm(half step up)
Promessa Key F#mF#m(one step up)
Promessa Key GmGm
Promessa Key G#mG#m
Promessa Key AmAm
Promessa Key A#mA#m
  		"Sinto que não é bem assim" INTRO 
 
--------------------------------------------------------------------------------------- 
--------------------------------------------------------------------------------------- 
-33333333-5555555-PAUSA-3333333-------------------------------------------------------- 
-------------------------------5555-7777----------------------------------------------- 
 
"Espero esse momento" VOZ 1 
 
--------------------------------------------------------------------------------------- 
--------------------------------------------------------------------------------------- 
-7777-3333-5555----7777-3333---------7777-3333-5555----7777-3333----------------------- 
---------------5555---------5555-7777--------------5555---------555555555555555555555-0 
 
"Eu nunca fui bom pra ninguém" VOZ 2 
 
----------------------------------------------------------------------------------------------- 
----------------------------------------------------------------------------------------------- 
-77777-9999-10-10-10-10--------------------99999999-10-10-10-10-10-10-10-10---------12/14-12--- 
-----------------------333333333333333333-0--------------------------------3333333-0--------14- 
 
"Ser alguém melhor" Refrão 
 
-------------------------------------------------------------------------------------------- 
-------------------------------------------------------------------------------------------- 
---------3333333-55555555-----------------3333333-55555555-12/14-12------------------------- 
-00000000----------------55555555-00000000----------------5--------14----------------------- 
 
"Espero esse momento" POS - Refrão 
 
--------------------------------------------------------------------------------------- 
--------------------------------------------------------------------------------------- 
-7777-3333-5555----7777-3333---------7777-3333-5555----7777-3333----------------------- 
---------------5555---------5555-7777--------------5555---------555555555555555555555-0 
 
"Sinto que não é bem assim" INTRO 
 
---------------------------------------------------------------------------------------- 
---------------------------------------------------------------------------------------- 
-33333333-555555-10-10-10-PAUSA-33333333------------------------------------------------ 
----------------------------------------5555-7777--------------------------------------- 
 
"Sem direção" VOZ 3 
 
---------------------------------------------------------------------------------------- 
---------------------------------------------------------7------------------------------ 
---------33333333-55555555-12/14-12-10--------3/10-3/10-5--12/14-12--------------------- 
-00000000-----------------------------00000000------------5--------14------------------- 
 
"Espero esse momento" POS - Refrão 
 
------------------------------------------------------------------------------------------------------------ 
------------------------------------------------------------------------------------------------------------- 
-7777-3333-5555----7777-3333-10-10-10-10-10-99999-7777-3333-5555------7777-3333------------------------------ 
---------------5555---------------------------------------------55555----------55555555-77777777-555555555555 
 
FINAL INSTRUMENTAL 
 
--------------------- 
--------------------- 
-9/12-10-9-12-10-9-7- 
--------------------- 
 

	  

Search Paypal
auto scroll beats size up size down change color hide chords drawings
tab show chords e-chords YouTube Clip e-chords hide all tabs e-chords go to top tab