Nx Zero

home > Nx Zero

Mudanças Bass Tab

Nx Zero

Difficulty: nolevelnolevel

by LINEKERS

tuner correct add songbook print version text version save to e-mail
chordsukulelecavacokeyboardtabbassdrumsharmonicsflute Guitar Pro
chords

Mudanças

Year: 2005 - Album: Diálogo?

	  Intro(entra junto com a bateria, tocar até a virada da bateria)

|---------------------------------------------------------------------------------------|
|---------------------------------------------------------------------------------------|
|---------------------------------------------------------------------------------------|
|-333333333333333333333333--------------------------------------------------------------|

|---------------------------------------------------------------------------------------|
|---------------------------------------------------------------------------------------|
|------------3-55-55-55-55-77-77-77-77-5------------------------------------------------|
|-33-33-33-33---------------------------55-55-55-55-------------------------------------|

|---------------------------------------------------------------------------------------|
|---------------------------------------------------------------------------------------|
|------------3-55-55-55-55-77-77-77-77-5------------------------------------------------|
|-33-33-33-33---------------------------55-55-55-55-3-----------------------------------|

"sempre estive aqui, ninguém tentou, ao menos me dar a mão" VOZ 1

|---------------------------------------------------------------------------------------|
|---------------------------------------------------------------------------------------|
|----17-19------------------------------------------------------------------------------|
|0/17-----------------------------------------------------------------------------------|

"então desisti, parei de tentar ser igual a você"
2x
|---------------------------------------------------------------------------------------|
|---------------------------------------------------------------------------------------|
|-3333-5555-----------------------------------------------------------------------------|
|----------00000------------------------------------------------------------------------|

"fiz tudo ser tão normal" Nessa parte deixe as notas soarem
|---------------------------------------------------------------------------------------|
|---------------------------------------------------------------------------------------|
|-3-------------------------------------------------------------------------------------|
|0-0------------------------------------------------------------------------------------|

"odeio, tudo em você!" REFRAO

|---------------------------------------------------------------------------------------|
|---------------------------------------------------------------------------------------|
|---------------------------------------------------------------------------------------|
|-00-033333333-55555555-00-00-033333333-555555555---------------------------------------|

"pra tentar te convecer, que tudo não era bom" POS-REFRAO

3x
|---------------------------------------------------------------------------------------|
|---------------------------------------------------------------------------------------|
|-33-55---------------------------------------------------------------------------------|
|-------00-00---------------------------------------------------------------------------|

|---------------------------------------------------------------------------------------|
|---------------------------------------------------------------------------------------|
|-33-55---------------------------------------------------------------------------------|
|-------00-00-0-------------------------------------------------------------------------|

Instrumental Deixe as notas soarem

2x
|---------------------------------------------------------------------------------------|
|---------------------------------------------------------------------------------------|
|--3------------------------------------------------------------------------------------|
|-0-0-----------------------------------------------------------------------------------|

"eu fiz tudo aprecer tão normal" PRE-REFRAO

3x
|---------------------------------------------------------------------------------------|
|---------------------------------------------------------------------------------------|
|-33-55---------------------------------------------------------------------------------|
|-------00-00---------------------------------------------------------------------------|

|---------------------------------------------------------------------------------------|
|---------------------------------------------------------------------------------------|
|-33-55---------------------------------------------------------------------------------|
|-------00-00-0-------------------------------------------------------------------------|

"odeio, tudo em você!" REFRAO

|---------------------------------------------------------------------------------------|
|---------------------------------------------------------------------------------------|
|---------------------------------------------------------------------------------------|
|-00-033333333-55555555-00-00-033333333-555555555---------------------------------------|

Instumental

|---------------------------------------------------------------------------------------|
|---------------------------------------------------------------------------------------|
|-1/15-----15/17-15---------------------------------------------------------------------|
|-----17-15--------17-15-12-------------------------------------------------------------|

Outro

|---------------------------------------------------------------------------------------|
|---------------------------------------------------------------------------------------|
|---------------------------------------------------------------------------------------|
|-000000000000000000-3333333333-555555555-000000000000000000-333333333-555555555--------| 
	  

there isn't a video lesson for this song

request
Search Paypal
auto scroll beats size up size down change color hide chords drawings
tab show chords e-chords YouTube Clip e-chords hide all tabs e-chords go to top tab