Nirvana

home > Nirvana

Polly (ver. 3) Bass Tab

Nirvana

Difficulty: nolevelnolevel

by Pantufa

tuner correct add songbook print version text version save to e-mail
chordsukulelecavacokeyboardtabbassdrumsharmonicsflute Guitar Pro
chords

Polly (ver. 3)

  		Polly 
 
Música: 
G|-----------------------------------------| 
D|----------------------0--0--------------| 
A|-----------------------------3--3--3--2| 
E|---0--0--3--3--3----------------------| 
 
Refrão: 
G|----------------------------------| 
D|---0------------------------------| 
A|-------3--3--3---------1--1--1| 
E|------------------3--3-----------| 
 
Leandro Calil Duarte 

	  

Search Paypal
auto scroll beats size up size down change color hide chords drawings
tab show chords e-chords YouTube Clip e-chords hide all tabs e-chords go to top tab