Nirvana

home > Nirvana

Polly (ver. 2) Bass Tab

Nirvana

Difficulty: nolevelnolevel

by Lagarto

tuner correct add songbook print version text version save to e-mail
chordsukulelecavacokeyboardtabbassdrummharmonicsflute Guitar Pro
chords

Polly (ver. 2)

  		MODELO 1- abertura e verso 
 
E|-0---3-3-3------------------0---3-3-3------------------| 
A|-------------------3--3-3-3-------------------3--3-3-3-| 
D|------------0-0-0----------------------0-0-0-----------| 
G|-------------------------------------------------------| 
   ou 
E|-0---3-3-3--10-10-10--8--8-8-8-0---3-3-3--10-10-10--8--8-8-8-| 
 
 
 
MODELO 2- refrão 
 
E|-----------------3-3-3-6--6-6-6-| 
A|-------3--3-3-3-----------------| 
D|-0-0-0--------------------------| 
G|--------------------------------| 
   ou 
E|-10-10-10-8--8-8-8--3-3-3-6--6-6-6-| 
	  

Search Paypal
auto scroll beats size up size down change color hide chords drawings
tab show chords e-chords YouTube Clip e-chords hide all tabs e-chords go to top tab