Nirvana

home > Nirvana

On a plain (ver. 2) Bass Tab

Nirvana

Difficulty: nolevelnolevel

by Maicon%5FAm%5F

tuner correct add songbook print version text version save to e-mail
chordsukulelecavacokeyboardtabbassdrumsharmonicsflute Guitar Pro
chords

On a plain (ver. 2)

(Kurt Cobain)

  		Verse 
 
G-|------------------------------------------------------------------ 
D-|*--------------------------------------------3-5--3-3-5-3-2-2-2h3- 
A-|*-/5--5-5-2-2-3-2-0-0-2-0---------5--5-5-0-2---------------------- 
D-|-------------------------4-4-5-2---------------------------------- 
 
 
 
G-|------------------------------------------------------------| 
D-|----------------------------------------------------------*-| 
A-|-5--5-5-3--3-3-2--2-0--0-2-3-5--5-5-0--0-0----------------*-| repeat(2x) 
D-|-------------------------------------------5--5--4-5-4-2----| 
 
 
Chorus  
 
G-|-------------------------------------| 
D-|*----------------------------------*-| 
A-|*-5--5-5---------8-8-8-8-8-8-8-8---*-| repeat(4x) 
D-|---------5--5-5----------------------| 
 
 
Bridge  
 
G-|-----------------------------------------------------------------| 
D-|*--------------------------------------------------------------*-| 
A-|*----------------------------------7---7-----------------------*-| repeat(3x) 
D-|--3--3-3--3-3-0-2--2-2--2-2-2-7--7---7---7-5-5-5-0-5-5-5-4-3-----| 
 
|  
 
Play this instead of that on the 4th time-| 
 
G-|-----------------| 
D-|-----------------| 
A-|-----------------| 
D-|-5-5-5-5-5-3-2-0-| 

	  

Search Paypal
auto scroll beats size up size down change color hide chords drawings
tab show chords e-chords YouTube Clip e-chords hide all tabs e-chords go to top tab