Nirvana

home > Nirvana

love buzz (ver.2) Bass Tab

Nirvana

Difficulty: nolevelnolevel

by principe%5FBoddaH

tuner correct add songbook print version text version save to e-mail
chordsukulelecavacokeyboardtabbassdrumsharmonicsflute Guitar Pro
chords

love buzz (ver.2)

  		 
 
G|-------------8s7-----| 
D|--7p-x-7-5-7---------| 27x 
A|---------------------|   
E|---------------------| 
 
G|------------8s7------------8s7------------8s7------------88--| 
D|-7p-x-7-5-7-----7p-x-7-5-7-----7p-x-7-5-7-----7p-x-7-5-7-----| 2x 
A|-------------------------------------------------------------|   
E|-------------------------------------------------------------| 
                                                    
G|-8-------8-----8-------8-----8-----------------| 
D|---7-5-7---7-5---7-5-7---7-5---7-5-7-9-8-7-6-5-| 
A|-----------------------------------------------| 
E|-----------------------------------------------|   
 
G|-5p--5-3-5-5s6s5-----| 
D|---------------------| 24x 
A|---------------------| 
E|---------------------| 
 
G|---------------------| 
D|---------------------| 
A|---------------------|  
E|-000000000000000001--| 

	  

Search Paypal
auto scroll beats size up size down change color hide chords drawings
tab show chords e-chords YouTube Clip e-chords hide all tabs e-chords go to top tab