Nirvana

home > Nirvana

Love Buzz (ver. 2) Bass Tab

Nirvana

Difficulty: AdvancedAdvanced

by meta11eir0

tuner correct add songbook print version text version save to e-mail
chordsukulelecavacokeyboardtabbassdrumsharmonicsflute Guitar Pro
chords

Love Buzz (ver. 2)

  		Nirvana 
Love buzz 
 
Intro/Verso 
G|--------------7h8(p7)---------------------------- 
D|---8---6-8-9------------------------------------- 
A|------------------------------------------------- 
E|------------------------------------------------- 
 
 Bom, eu vo dar algumas variacoes: 
G|-------------7----------------------------------- 
D|---8---6-8-9------------------------------------- 
A|------------------------------------------------- 
E|------------------------------------------------- 
 
G|-------------78---------------------------------- 
D|---8---6-8-9------------------------------------- 
A|------------------------------------------------- 
E|------------------------------------------------- 
 
Faça isso no fim do verso: 
G|-------------87---------------------------------- 
D|---8---6-8-9------------------------------------- 
A|------------------------------------------------- 
E|------------------------------------------------- 
 
Refrao 
G|----7---7---------7-7---|---7---6-8-10-8-7-------- 
D|*-8---8---8--6h8---8-8-*|-8---8------------8--6-8- 
A|*----------------------*|------------------------- 
E|------------------------|------------------------- 
 
Ponte (depois do segundo refrao): 
G|-----78-------78------78------78---| 
D|-8689---868689--868689--868689-----| 
A|-----------------------------------| 
E|-----------------------------------| 
 
G|------------------|--------------|--------------|--------------- 
D|------------------|--------------|--------------|--------------- 
A|--------------5---|----------5---|----------5---|----------5---- 
E|-1--4--6--4-6---6-|-4-6--4-6---6-|-4-6--4-6---6-|-4-6--4-6---6-- 
 
G|---------6---|-------------|----6-8/10-8-6-|--------------|----- 
D|-6h8-6-8---8-|-------------|6-8------------|--------------|----- 
A|-------------|---------5---|---------------|----4-6/8-6-4-|----- 
E|-------------|-4h6-4-6---6-|---------------|4-6-----------|----- 
 
G|---------------------------------------------------------------- 
D|-------------------------------------8-6--------------------------- 
A|8-6-5---------------------5--6-8-6-5-----8-6-5-6-5-------------- 
E|------6-4-1-4-1-4-4/6-4-6---------------------------6-4-6-1-4--- 
 
G|--------------------------------------------|-------------------| 
D|--------------------------------------------|*-----------------*| 
A|-----1---1-----1-4-1----------5---5-8-6-5-1-|*------1-----5----*| 
E|-1-4---4---1-4-------4--1-4-6---6-----------|--1--4----4--------| 
 
G|-------------------6-8/10-|-------------------------------------| 
D|-----------6---6-8--------|------------------------------6--8---| 
A|-----5-6-8---8------------|-8-6-5---5------------1--------------| 
E|-4-6----------------------|-------6---6--4--1--4----4--1--------| 
 
 Fim: 
G|--------------------------------------------- 
D|--------------------------------------------- 
A|--------------------------------------------- 
E|-66666666-4/6-------------------------------- 
 
--> É isso::: 

	  

Search Paypal
auto scroll beats size up size down change color hide chords drawings
tab show chords e-chords YouTube Clip e-chords hide all tabs e-chords go to top tab