Nirvana

home > Nirvana

Lounge Act (ver. 2) Bass Tab

Nirvana

Difficulty: nolevelnolevel

by KURT+CONBAI

tuner correct add songbook print version text version save to e-mail
chordsukulelecavacokeyboardtabbassdrummharmonicsflute Guitar Pro
chords

Lounge Act (ver. 2)

  		  
  
Antes da musica começa vc raspa levemete  a palheta na corda mi pra da o efeito  do começo 
 
INTRO/VERSES(Truth covered ....) 
G-------------------------------------------------- 
D--0--4--------------0------------0---------------- 
A-2--------------------4--2--0-2-----4------------- 
E--------2-2--1--2-2--------------------2--2--1--2 
 
contiuação da intro/verses 
 
G--------- 
D--------- 
A-3-2-0--- 
E--------3 
 
Chorus (And I´ve got this friend.....) 2x 
 
G---------------------------------------------- 
D-----------5h7-7-5---0-0-------------2-----2-- 
A---------0----------------------2-3------2--- 
E----0--0--------------------3-5--------0---- 
 
essa parte  agora e  a depois do refrao (Don´t tell me what I wanna hear) 
 
G----2----0------------------------------------- 
D--0---0---------------------------------------- 
A--------------------0-0-0-0--------------------- 
E ----------0--3-------------4-4-4-3-3-3--------- 
	  

Search Paypal
auto scroll beats size up size down change color hide chords drawings
tab show chords e-chords YouTube Clip e-chords hide all tabs e-chords go to top tab