Nirvana

home > Nirvana

In Bloom (vers. 3 ) Bass Tab

Nirvana

Difficulty: nolevelnolevel

by principe%5FBoddaH

tuner correct add songbook print version text version save to e-mail
chordsukulelecavacokeyboardtabbassdrumsharmonicsflute Guitar Pro
chords

In Bloom (vers. 3 )

  		 
intro: 
G|------------------------------|                     
D|------------------------------| 2 vezes        
A|-2-22-------------------------|  
E|-----3-3333-1-11-4-444--------|  
 
G|------------------------------|  
D|------------------------------|  
A|-22222-2---------------2-2-0--| 2 vezes 
E|--------22222-2-00000-0-------|  
 
 
G|------------------------------|  
D|------------------------------|  
A|-22222-2---------------2-2-0--| 4 vezes 
E|--------22222-2-00000-0-------|  
 
 
G|------------------------------|  
D|------------------------------| 4 vezes 
A|-2-22-------------------------| 
E|------3-3333-1-1111-4---------|  
 
G|------------------------------|  
D|------------------------------|  
A|-4-444-2-2222-4-444-2-2222----|  
E|---------------------------33-|  
 
 
G|------------------------------|  
D|------------------------------|  
A|-22222-2---------------2-2-0--| 4 vezes 
E|--------22222-2-00000-0-------|  
 
 
G|------------------------------|  
D|------------------------------| 4 vezes 
A|-2-22-------------------------| 
E|------3-3333-1-1111-4---------|  
 
G|------------------------------|  
D|------------------------------|  
A|-4-444-2-2222-4-444-2-2222----|  
E|---------------------------33-|  
 
 
G|------------------------------|  
D|------------------------------|  
A|-22222-2---------------2-2-0--| 4 vezes 
E|--------22222-2-00000-0-------|  
 
 
G|------------------------------|  
D|------------------------------| 4 vezes 
A|-2-22-------------------------| 
E|------3-3333-1-1111-4---------|  
 
G|------------------------------|  
D|------------------------------| 2 vezes 
A|-4-444-2-2222-4-444-2-2222----|  
E|------------------------------|  
 
G|-----------------------------|                     
D|-----------------------------| 2 vezes        
A|-2-22------------------------|  
E|-----3-3333-1-11-4-444-------|  
 
G|---| 
D|---| 
A|-2-|deixe a corda tocar até acabar a música. 
E|---| 

	  

Search Paypal
auto scroll beats size up size down change color hide chords drawings
tab show chords e-chords YouTube Clip e-chords hide all tabs e-chords go to top tab