Nirvana

home > Nirvana

Drain you (ver. 2) Bass Tab

Nirvana

Difficulty: nolevelnolevel

by athmar

tuner correct add songbook print version text version save to e-mail
chordsukulelecavacokeyboardtabbassdrumsharmonicsflute Guitar Pro
chords

Drain you (ver. 2)

  		    C#m B      Eb    G#     C#m   B      Eb    G#     C#m    
G|------------------------------------------------------------- 
D|------------------------------------------------------------- 
A|--4-4-2--2-2-6-6-6--------4-4-4-2--2-2-6-6-6--------4-4-4---- 
E|-------------------4--4-4--------------------4--4-4---------- 
 
Na hora do Refrão: 
    B   Em     C#m     Em    C#m     Em    C#m     Em    C#m     
G|------------------------------------------------------------- 
D|------------------------------------------------------------- 
A|--2-2--------4-4-4-4-------4-4-4-4-------4-4-4-4-------4-4-4- 
E|------0--0-0---------0-0-0---------0-0-0---------0-0-0------- 
 
    B   Em   G# 
G|------------------------------------------------------------- 
D|------------------------------------------------------------- 
A|--2---------------------------------------------------------- 
E|------0----4------------------------------------------------- 
    I   Like you  
       
Na parte que kurt canta: 'you...' até começar com a intro  
G|------------------------------------------------------------- 
D|------------------------------------------------------------- 
A|------------------------------------------------------------- 
E|--4-4-4-4-4-4-4-4-4-4-4-4-4-4-4-4-4-4-4-4-4-4-4-4-4-4-4-4-4-- 

	  

Full key step upFull key step up
Half key step upHalf key step up
Half key step downHalf key step down
Full key step downFull key step down
Search Paypal
auto scroll beats size up size down change color hide chords drawings
tab show chords e-chords YouTube Clip e-chords hide all tabs e-chords go to top tab