Nirvana

home > Nirvana

Dive (ver.2) Bass Tab

Nirvana

Difficulty: nolevelnolevel

by markin+grunge

tuner correct add songbook print version text version save to e-mail
chordsukulelecavacokeyboardtabbassdrumsharmonicsflute Guitar Pro
chords

Dive (ver.2)

  		  
Essa tab não é exatamente uma música, é a parte 
em que o Krist Novoselic toca antes da música "Dive" no 
DVD "Live! Tonight! Sold Out!!!" 
 
1° Parte 
 
G|----------------------------| 
D|--------------------6-------| 
A|------6-6-6-8p64-6----------| 
E|---6------------------------| 
  
2° Parte 
G|-------------------------| 
D|----------------------6--| 
A|----4-4-4-5-5-5-6-6-6----| 
E|--6----------------------|x3 
 
3° Parte 
G|--------------------| 
D|----------------6---| 
A|----4-4-4--5--6-----| 
E|--6-----------------| 
 
  Depois é só repitir a 1° parte de novo! 
  Qualquer dúvida não exite em me mandar um e-mail! 

	  

Search Paypal
auto scroll beats size up size down change color hide chords drawings
tab show chords e-chords YouTube Clip e-chords hide all tabs e-chords go to top tab