Nirvana

home > Nirvana

Dive (ver. 3) Bass Tab

Nirvana

Difficulty: nolevelnolevel

by eduardo%5Flyvio

tuner correct add songbook print version text version save to e-mail
chordsukulelecavacokeyboardtabbassdrumsharmonicsflute Guitar Pro
chords

Dive (ver. 3)

  		Intro/Verso:  
: 
G-------------------------------------| 
D-------------------------------------| 
A-----------------7-7-7---------------| 
E-2-0-2-2-0-2-0-0---------------------|  
 
 
 
Refrão: 
G--------------------------|----------------------| 
D--------------------------|----------------------| 
A-2---2-4---4-------7-7--- |---------------7-7-7--| 
E-------------5-5----------|-2-0-2-2-0-2-0--------| 
 
 

	  

Search Paypal
auto scroll beats size up size down change color hide chords drawings
tab show chords e-chords YouTube Clip e-chords hide all tabs e-chords go to top tab