Misc Computer Games

home > Misc Computer Game...

Pokemon - Lavender Town Bass Tab

Misc Computer Games

Difficulty: nolevelnolevel

by mar%2Dgobbo

tuner correct add songbook print version text version save to e-mail
chordsukulelecavacokeyboardtabbassdrumsharmonicsflute Guitar Pro
chords

Pokemon - Lavender Town

	  

This is the creepy part that plays all the way through: 
G|---------16------| 
D|-----17-----16---| 
A|-15--------------| 
E|-----------------| 

Actual bass part: 
G|-------------------------------4-----------| 
D|-5~----5~----2~----2~----5-4-2-------------| 
A|---------------------------------4~----4~--| 
E|-------------------------------------------| 

G|-------------------------------4-5~----5~--| 
D|-5~----5~----2~----2~----5-4-2-------------| 
A|-------------------------------------------| 
E|-------------------------------------------| 

G|-------------------------------4-----------| 
D|-5~----5~----2~----2~----5-4-2-------------| 
A|---------------------------------4~----4~--| 
E|-------------------------------------------| 

G|-------------------------4-----4-----------| 
D|-5~----5~----2~----2~------5-4-------------| 
A|---------------------------------3~----3~--| 
E|-------------------------------------------| 

G|----------------------------------| 
D|-2~-----0~--------------2-----2---| 
A|----------------3~--------3-2-----| 
E|----------------------------------| 

 
	  

Search Paypal
auto scroll beats size up size down change color hide chords drawings
tab show chords e-chords YouTube Clip e-chords hide all tabs e-chords go to top tab