Michael Jackson

home > Michael Jackson

Thriller Bass Tab

Michael Jackson

Difficulty: BeginnerBeginner

by J%2EPaulo

tuner correct add songbook print version text version save to e-mail
chordsukulelecavacokeyboardtabbassdrumsharmonicsflute Guitar Pro
chords

Thriller

Year: 1982 - Album: Thriller

(Temperton)

	  G ------------------------- 
A ---------2h4------------- 
D --0h2h4-------4---------- 
E ------------------------- 
 
	Pre-Chorus 
G ------------------------- 
A -----4------4--4444444--- 
D ------------------------- 
E --2------2--------------- 
 
 
eh soh isso a musika inteira  
 
 
 

	  

there isn't a video lesson for this song

request
Search Paypal
auto scroll beats size up size down change color hide chords drawings
tab show chords e-chords YouTube Clip e-chords hide all tabs e-chords go to top tab