Michael Jackson

home > Michael Jackson

Billy jean Bass Tab

Michael Jackson

Difficulty: BeginnerBeginner

by J%2EPaulo

tuner correct add songbook print version text version save to e-mail
chordsukulelecavacokeyboardtabbassdrumsharmonicsflute Guitar Pro
chords

Billy jean

	  Intro: 
g ------------------------ 
d --4---2--4---2---------- 
a ----4-----------4--2--4- 
e ------------------------ 
 
no Dm eh: 
 
g ------------------------- 
d ----4------4--2--4------- 
a --2---0-2---------------- 
e ------------------------- 
 
Antes Do Verso: 
 
People always tell me.. 
 
g ------------------------- 
d ------------------------- 
a --5---------------------- 
e -------------------2----- 
 
Be careful what you do 
 
g ------------------------- 
d --4---------------------- 
a ------------------------- 
e ------------------2------ 
 
And don't go... 
 
g ------------------------- 
d ------------------------- 
a --5---------------------- 
e -------------------2----- 
 
young girls hearts... 
 
g ------------------------- 
d --4---------------------- 
a ------------------------- 
e ------------------2------ 
 
And mother... 
 
g ------------------------- 
d ------------------------- 
a --5---------------------- 
e -------------------2----- 
 
be careful who yo love 
 
g ------------------------- 
d --4---------------------- 
a ------------------------- 
e ------------------2------ 
 
 
and be careful what you do 'cause the 
 
g ------------------------- 
d ------------------------- 
a --5------------------5-5- 
e ------------------------- 
 
lie becomes the truth 
 
g ------------------------- 
d ------------------------- 
a --3-3-3-3-3-------------- 
e ------------------------- 
 
 
_______________________________________________________ 
Contribuição: Niger Luis Dos Santos  

	  

there isn't a video lesson for this song

request
Full key step upFull key step up
Half key step upHalf key step up
Half key step downHalf key step down
Full key step downFull key step down
Search
auto scroll beats size up size down change color hide chords drawings
tab show chords e-chords YouTube Clip e-chords hide all tabs e-chords go to top tab