Michael Jackson

home > Michael Jackson

Billie Jean Bass Tab

Michael Jackson

Difficulty: BeginnerBeginner

tuner correct add songbook print version text version save to e-mail
chordsukulelecavacokeyboardtabbassdrumsharmonicsflute Guitar Pro
chords

Billie Jean

Year: 1982 - Album: Thriller

(Michael Jackson)

	  
Verse: 

G|---------------------------|---------------------------| 
D|--4-----2--4--2------------|--4-----2--4--2------------| 
A|-----4-----------4--2--4---|-----4-----------4--2--4---| 
B|---------------------------|---------------------------| (8x) 

G|--4-----2--4----------------|--4-----2--4--------------| 
D|-----4-----------4--2--4----|-----4-----------4--2-----| 
A|----------------------------|-----------------------4--| 
E|----------------------------|--------------------------| 

G|---------------------------|---------------------------| 
D|--4-----2--4--2------------|--4-----2--4--2------------| 
A|-----4-----------4--2--4---|-----4-----------4--2--4---| 
B|---------------------------|---------------------------| 

G|--4-----2--4----------------|--4-----2--4--------------| 
D|-----4-----------4--2--4----|-----4-----------4--2-----| 
A|----------------------------|-----------------------4--| 
E|----------------------------|--------------------------| 

G|---------------------------|---------------------------| 
D|--4-----2--4--2------------|--4-----2--4--2------------| 
A|-----4-----------4--2--4---|-----4-----------4--2--4---| 
B|---------------------------|---------------------------| 


Pre-Chorus: 

G|-------------------------------------------| 
D|------------------------2--3---4-----------| 
A|--5-----------5--5-----------------------0-| 
E|-----------------------------------2-2-----| (3x) 

G|-------------------------------| 
D|--5--5-5---5--0--3-3-3-3-3-3-3-| 
A|-------------------------------| 
E|-------------------------------| 

Chorus: 

G|---------------------------|---------------------------| 
D|--4-----2--4--2------------|--4-----2--4--2------------| 
A|-----4-----------4--2--4---|-----4-----------4--2--4---| 
B|---------------------------|---------------------------|(2x) 

G|--4-----2--4----------------|--4-----2--4--------------| 
D|-----4-----------4--2--4----|-----4-----------4--2-----| 
A|----------------------------|-----------------------4--| 
E|----------------------------|--------------------------| 


G|---------------------------|---------------------------| 
D|--4-----2--4--2------------|--4-----2--4--2------------| 
A|-----4-----------4--2--4---|-----4-----------4--2--4---| 
B|---------------------------|---------------------------| 

G|--4-----2--4----------------|--4-----2--4--------------| 
D|-----4-----------4--2--4----|-----4-----------4--2-----| 
A|----------------------------|-----------------------4--| 
E|----------------------------|--------------------------| 

G|---------------------------|---------------------------| 
D|--4-----2--4--2------------|--4-----2--4--2------------| 
A|-----4-----------4--2--4---|-----4-----------4--2--4---| 
B|---------------------------|---------------------------| 




	  

there isn't a video lesson for this song

request
Search
auto scroll beats size up size down change color hide chords drawings
tab show chords e-chords YouTube Clip e-chords hide all tabs e-chords go to top tab