Metallica

home > Metallica

Frantic Bass Tab

Metallica

Difficulty: ExpertExpert

by eduardo%5Flyvio

tuner correct add songbook print version text version save to e-mail
chordsukulelecavacokeyboardtabbassdrumsharmonicsflute Guitar Pro
chords

Frantic

Year: 2003 - Album: St. Anger

  		F||------------------|------------------|------------------|------------------| 
C||------------------|------------------|------------------|------------------| 
G||------------------|------------------|------------------|------------------| 
C||------------------|------------------|------------------|------------------| 
 
 
                                                                   
---------------------|---------------------|---------------------| 
---------------------|---------------------|---------------------| 
---------------------|---------------------|---------------------| 
--1--------1--0------|--1--------1--0------|--1--------1--0------| 
 
 
                                                                   
---------------------|---------------------|---------------------| 
---------------------|---------------------|---------------------| 
---------------------|---------------------|---------------------| 
--1--------1--0------|--1--------1--0------|--1--------1--0------| 
 
 
                                                                              
---------------------|----------------------|-------------------------------| 
---------------------|----------------------|-------------------------------| 
---------------------|----------------------|-------------------------------| 
--1--------1--0------|--1--------1--0----0--|--6--3--0-0-0-0-5--0-0-0-0-0-0-| 
 
 
                                                                 
-------------------------------|-------------------------------| 
-------------------------------|-------------------------------| 
-------------------------------|-------------------------------| 
--6--3--0-0-0-0-5--0-0-0-0-0-0-|--6--3--0-0-0-0-5--0-0-0-0-0-0-| 
 
 
                                                                   
-------------------------------||--------------------------------| 
-------------------------------||*-------------------------------| 
-------------------------------||*-------------------------------| 
--6--3--0-0-0-0-5--0-0-0-0-0-0-||---6--3--0-0-0-0-5--0-0-0-0-0-0-| 
 
 
                                                                 
-------------------------------|-------------------------------| 
-------------------------------|-------------------------------| 
-------------------------------|-------------------------------| 
--6--3--0-0-0-0-5--0-0-0-0-0-0-|--6--3--0-0-0-0-5--0-0-0-0-0-0-| 
 
 
                                2x                             
--------------------------------||------|------|------|------| 
-------------------------------*||------|------|------|------| 
-------------------------------*||------|------|------|------| 
--6--3--0-0-0-0-5--0-0-0-0-0-0--||------|------|------|------| 
 
 
                                                                              
|-------------------------|------------------------|------------------------| 
|*------------------------|------------------------|------------------------| 
|*------------------------|------------------------|------------------------| 
|---6--3--0--5----5----0--|--6--3--0--5----5----0--|--6--3--0--5----5----0--| 
 
 
                                                         
----------------------------||-------------------------| 
---------------------------*||*------------------------| 
---------------------------*||*------------------------| 
--6--3--0--0--0--0--0-0-0---||---6--3--0--5----5----0--| 
 
 
                                                                                 
------------------------|------------------------|----------------------------|| 
------------------------|------------------------|---------------------------*|| 
------------------------|------------------------|---------------------------*|| 
--6--3--0--5----5----0--|--6--3--0--5----5----0--|--6--3--0--0--0--0--0-0-0---|| 
 
 
                                                        
---------------------------|--------------------------| 
*--------------------------|--------------------------| 
*--------------------------|--------------------------| 
---6--3--0--0--0--0--0--0--|--6--3--0--0--0--0--0--0--| 
 
 
                                                         
--------------------------|---------------------------|| 
--------------------------|--------------------------*|| 
--------------------------|--------------------------*|| 
--6--3--0--0--0--0--0--0--|--6--3--0--0--0--0--0--0---|| 
 
 
                                                       
--------------------------|--------------------------| 
--------------------------|--------------------------| 
--------------------------|--------------------------| 
--3--3--3--3--2--2--2--2--|--3--3--3--3--2--2--2--2--| 
 
 
                                                       
--------------------------|--------------------------| 
--------------------------|--------------------------| 
--------------------------|--------------------------| 
--3--3--3--3--2--2--2--2--|--3--3--3--3--2--2--2--2--| 
 
 
                                                         
|---------------------------|--------------------------| 
|*--------------------------|--------------------------| 
|*--------------------------|--------------------------| 
|---6--3--0--0--0--0--0--0--|--6--3--0--0--0--0--0--0--| 
 
 
                                                                
--------------------------|---------------------------||------| 
--------------------------|--------------------------*||------| 
--------------------------|--------------------------*||------| 
--6--3--0--0--0--0--0--0--|--6--3--0--0--0--0--0--0---||------| 
 
 
                                                                             
------------------|------------------------|------------------------|------| 
------------------|------------------------|------------------------|------| 
------------------|------------------------|------------------------|------| 
------------------|--6--3--0--5----5----0--|--6--3--0--5----5----0--|------| 
 
 
                                                                            
------------------|---------------------------|---------------------------| 
------------------|---------------------------|---------------------------| 
------------------|---------------------------|---------------------------| 
------------------|--0-0-0-0-0-0-0-0-0--------|--0-0-0-0-0-0-0-0-0--------| 
 
 
                                                                               
---------------------------|---------------------------|---------------------| 
---------------------------|---------------------------|---------------------| 
---------------------------|---------------------------|---------------------| 
--0-0-0-0-0-0-0-0-0--------|--0-0-0-0-0-0-0-0-0--------|--6------3------5----| 
 
 
                                                                   
---------------------|---------------------|---------------------| 
---------------------|---------------------|---------------------| 
---------------------|---------------------|---------------------| 
----3------6----5----|--6------3------5----|----3------6----5----| 
 
 
                                                                   
---------------------|---------------------|---------------------| 
---------------------|---------------------|---------------------| 
--5------3------2----|---------------------|--5------3------2----| 
---------------------|----5------3----5----|---------------------| 
 
 
                                                                   
---------------------|---------------------|---------------------| 
---------------------|---------------------|---------------------| 
---------------------|---------------------|---------------------| 
----5------3----5----|--6------3------5----|----3------6----5----| 
 
 
                                                                   
---------------------|---------------------|---------------------| 
---------------------|---------------------|---------------------| 
---------------------|---------------------|--5------3------2----| 
--6------3------5----|----3------6----5----|---------------------| 
 
 
                                                                    
---------------------|---------------------|---------------------|| 
---------------------|---------------------|---------------------|| 
---------------------|--5------3------2----|---------------------|| 
----5------3----5----|---------------------|----5------3----5----|| 
 
 
 
 

	  

Search Paypal
auto scroll beats size up size down change color hide chords drawings
tab show chords e-chords YouTube Clip e-chords hide all tabs e-chords go to top tab