Mest

Misunderstood

Mest

bass Beginner beginner

by  FALLING UP

save to print version add songbook text version e-mail correct tuner
chordsukulelecavacokeyboardtabbassdrumsharmonicaflute Guitar Pro
close

there isn't a video lesson for this song

chords

Misunderstood

	  		Intro *1  
G -----------------------|---------------------------------|  
D -----------------------|---------------------------------|  
A -----3>--0>------------|---3-3-----0-0-------------------|  
E --------------1>--3>---|-------------------1-(hold)-3-3--|  
(I know youre not exactly crazy)  
Verse  
G -----------------------------------|  
D -----------------------------------|  
A -----3>--2>--0>--------------------|  
E -------------------3>--1>--3-3-----|  
 
Chorus  
G ------------------------------------------------------------------|  
D ------------------------------------------------------------------|  
A -----3-3-(Completely)-0-0-(Overwhelming)--------------------------|  
E ---------------------------------------------1>---3>--------------|  
 
Play lots of-  
A---3s---| at end of first Chorus.  
 
Bridge-  
Im not sure if the bass plays the lead or the rhythm but it sounds good of you play the lead.  
G -----------------------------------------------------------------------------|  
D -----------------------------------------------------------------------------|  
A 0-0-0-0-0-0-2-2-3-3-5-5-2-2------------------2-2-3-3-5-5-2-2----------------|  
E --------------------------------3-3-3-3-3-3---------------------1-1-1-1-1-1--|  
 
G -----------------------------------------------------------------------------|  
D -----------------------------------------------------------------------------|  
A 2-2-3-3-5-5-2-2-----------------2-2-3-3-5-5-2-2------------------------------|  
E -------------------3-3-3-3-3-3-----------------------------------------------|  
 
 
Rhythm part after and during the bridge.  
G --------------------------------|  
D --------------------------------|  
A --------------------------------|  
E ----5>--3>--1>--33-3-33-3-------|  

		  

auto scroll beats size up size down change color hide chords drawings
tab show chords e-chords YouTube Clip e-chords hide all tabs e-chords go to top tab

share